Song name
# A B C D E F G H I J K L M N O P Q R S T U V W X Y Z

Rage Against The Machine - Mindsets A Threat tab

Help us improve GuitareTab! Take a short survey!
Mindsets a Threat-Rage Against the Machine Unreleased Demo tape.
Find this on Youtube or on the internet-great song.
The riffs are based on the A Minor Blues Scale.

Intro/Main Riff

e---------------------------------------------------------------------------|
B---------------------------------------------------------------------------|
G---Palm Mute-then-Gradually-Release-and-add-volume-------------------------|
D---------------------------------------------------------------------------|
A--7-7-7-7-7-7-7-7-7-7-7-7-7-7-7-7-7--------not-sure-if-these-are-chords----|
E--5-5-5-5-5-5-5-5-5-5-5-5-5-5-5-5-5---------play-pretty-fast---------------|
Main Riff
e---------------------------------------------------------|
B---------------------------------------------------------|
G---------------------------5(slight-bend)----------------|
D------------------5---8----------------------------------|
A---------5--6--7-----------------------------------------|
E---5--8--------------------------8----5\--------5--8--5--|(repeat-main-riff)
Verse
e---------------------------------------------------------------------------|
B--------------------------------------------Pick-Slide-Before-Chourus------|
G---------------------------------------------------------------------------|
D---------------------------------------------------------------------------|
A------------7--7-----------------------------------------------------------|
E--5--8--5---5--5-----------------------------------------------------------|
Chorus
e---------------------------------------------------------------------------|
B---------------------------------------------------------------------------|
G-------------------------------------5(slight-bend)------------------------|
D-----------------------------5---7-----------------------------------------|
A-------------------5--6--7-------------------------------------------------|
E--5--8--5---5--8--------------------------------8---5\---------------------|
2nd Verse
e---------------------------------------------------------------------------|
B-------------------------------------------Pick-Slide-Before-Chorus--------|
G---------------------------------------------------------------------------|
D---------------------------------------------------------------------------|
A------------7--7-----------------------------------------------------------|
E--5--8--5---5--5-----------------------------------------------------------|
2nd Chorus
e---------------------------------------------------------------------------|
B---------------------------------------------------------------------------|
G-------------------------------------5(slight-bend)------------------------|
D-----------------------------5---7-----------------------------------------|
A-------------------5--6--7-------------------------------------------------|
E--5--8--5---5--8--------------------------------8---5\---------------------|
Bridge-The rythem is the same as the intro to their song Wake Up
e---------------------------------------------------------------------------|
B---------------------------------------------------------------------------|
G----------------------------Can't-Tell-if-this-is-here-or-not-try-it-out---|
D-------------------------------|-------------------------------------------|
A---7-7-7-7---7-7-7-7-7---7-7-7(7)------------------------------------------|
E---5-5-5-5---5-5-5-5-5---5-5-5(5)-----Repeat-until-breakdown---------------|

Breakdown: Tom uses his killswitch. You need two pickups with seperate volume controls.
neckpick up to Zero and Bridge to Ten. When you flick the switch down it emits noise and
it stops noise. Use this like a pick in the sense that picking makes the note ring in 
same way the killswitch makes the note ring. All notes must be hammerons/pulloffs
your picking hand is using the pickup selector.

e---------------------------------------------------------------------------|
B---------------------------------------------------------------------------|
G---------------Runs-down-the-A-minor-scale---------------------------------|
D-----------------------------------------------------------------------7---|
A--12--0-0--10--0-0--8--0-0--7--0-0--5-0----3--0---3-0-0--5--0-0--7--0------|
E---------------------------------------------------------------------------|
Solo:Too fast for me to tab uses the a minor pentatonic scale at the 17th fret here is
last lick of the solo tho

e--22b-22b--22b--22b---22--20--22b-20---------------------------------------|
B-------------------------------------22\-----------------------------------|
G---------------------------------------------------------------------------|
D---------------------------------------------------------------------------|
A---------------------------------------------------------------------------|
E---------------------------------------------------------------------------|
Last verse
e---------------------------------------------------------------------------|
B-------------------------------------------Pick-Slide-Before-Chorus--------|
G---------------------------------------------------------------------------|
D---------------------------------------------------------------------------|
A------------7--7-----------------------------------------------------------|
E--5--8--5---5--5-----------------------------------------------------------|
Last Chorus+Ending
e---------------------------------------------------------------------------|
B---------------------------------------------------------------------------|
G-------------------------------------5(slight-bend)------------------------|
D-----------------------------5---7-----------------------------------------|
A-------------------5--6--7----------------------------------7-7-7-7\-------|
E--5--8--5---5--8--------------------------------8---5\------5-5-5-5\-------|

Thats it. Might work on the solo. Questions or Corrections on the tab contact me through
website or my username audioRATMslave on youtube.
This sounds 100% correct to my ears. Peace.
Related for Mindsets A Threat tab