Song name
# A B C D E F G H I J K L M N O P Q R S T U V W X Y Z

Rage Against The Machine - Emit Remmus tab

          Emit Remmus

          Guitar Intro/Verse
          |---------|---------|---------|---------|
          |---------|---------|---------|---------|
          |--15~~~--|---~~~---|--13~~~--|---~~~---|
          |---------|---------|---------|---------|
          |---------|---------|---------|---------|
          |---------|---------|---------|---------|

          Guitar Chorus
          |--6/8--8--8--11-11-11-(11)--|
          |--8/10-10-10-13-13-13-(13)--|
          |--8/10-10-10-13-13-13-(13)--|
          |--8/10-10-10-13-13-13-(13)--|
          |--6/8--8--8--11-11-11-(11)--|
          |----------------------------|

          Guitar Bridge
          |--3--3-3--3-3-3--|--4--4-4--4-4-4--|
          |--5--5-5--5-5-5--|--4--4-4--4-4-4--|
          |--5--5-5--5-5-5--|--5--5-5--5-5-5--|
          |--5--5-5--5-5-5--|--6--6-6--6-6-6--|
          |--3--3-3--3-3-3--|--6--6-6--6-6-6--|
          |-----------------|--4--4-4--4-4-4--|

          |--6--6-6--6-6-6--|--/8--8--8--8--8--8--8--8---|
          |--6--6-6--6-6-6--|--/10-10-10-10-10-10-10-10--|
          |--7--7-7--7-7-7--|--/10-10-10-10-10-10-10-10--|
          |--8--8-8--8-8-8--|--/10-10-10-10-10-10-10-10--|
          |--8--8-8--8-8-8--|--/8--8--8--8--8--8--8--8---|
          |--6--6-6--6-6-6--|----------------------------|

          Tab by Jarno (jarno_korhonen@hotmail.com)
Tap to rate this tab
# A B C D E F G H I J K L M N O P Q R S T U V W X Y Z