Song name
# A B C D E F G H I J K L M N O P Q R S T U V W X Y Z

Rage Against The Machine - Fuck The Police tab

------------------------------------------------------------------------
			  fuck the police - RATM
------------------------------------------------------------------------
Tabbed by: Gary Elechicon
Email: rephlica@yahoo.com

Tuning:standard 

intro:
bass:
e|---------------------------------------|
B|---------------------------------------|
G|---------------------------------------|
D|---------------------------------------|
A|-----------7--6--5--4---3--2---1-------|
E|--3--5---------------------------------|


guitar:
e|-----------12--11--10--9--8--7--6------|
B|---------------------------------------|
G|---------------------------------------|
D|--5--7---------------------------------|
A|--5--7---------------------------------|
E|--3--5---------------------------------|

verse
guitar:
                           
e|--------------------------(12)-------------------------------(12)----|
B|---------------------------------------------------------------------|
G|---------------------------------------------------------------------|
D|---------------------------------------------------------------------|
A|--10-x-10-x-10--x-10-12---------10-x-10-x-12--12--10--12-------------|
E|---------------------------------------------------------------------|

Play the verse on the 12th fret so its would be easy to reach the higher E (12) with your pinkie.
I think morello's using a whammy bar digitech for this.

| /  slide 
| x  Mute note
=======================================================================
Tap to rate this tab
# A B C D E F G H I J K L M N O P Q R S T U V W X Y Z