Song name
# A B C D E F G H I J K L M N O P Q R S T U V W X Y Z

Rage Against The Machine - Revolver tab

Help us improve GuitareTab! Take a short survey!
Revolver
~~~~~~~~~~~~~~~~~~~~~~~~~~~~~~~~~~~~~~~~~~~~~~~~~~~~

TUNING: drop d (D,A,D,G,B,E)

INTRO PART A
A bunch of weird stuff first
|--0----------------------------|
|--0--- hold this for 8 beats --|
|--0----------------------------|
|-------------------------------|
|-------------------------------|
|-------------------------------| 

INTRO PART B  x2
|-----------------------------------------|
|-----------------------------------------|
|-----------------------------------------| 
|--------------------------------------3--| 
|--3--4--5---------------3----5--3--5-----|
|-----------0--3----5---------------------|

|-----------------------------------------|
|-----------------------------------------|
|-----------------------------------------|
|-----------------------------------------|
|--3--4--5---------------3----5--2--5-----|
|-----------0--3----5------------------0--|

INTRO PART C  x2
|-------------------------------------------|
|-------------------------------------------|
|--10v-----------------------------------x--|
|--10v------------------------------3----x--|
|---------------------3----5--3--5----------|
|-----------3----5--------------------------|

|-------------------------------------------|
|-------------------------------------------|
|--10v--------------------------------------|
|--10v--------------------------------------|
|---------------------3----5--2--5----------|
|-----------3----5------------------0-------|

VERSE
|------------------------------|
|------------------------------|
|------------------------------|
|------------10b---------------|
|--------------------------12--|
|--0---------------------------|

PRE-CHORUS
|----------------------------------|
|----------------------------------|
|--17------------------------------|
|---x- hit this chord repeatedly --|
|--15------------------------------|
|----------------------------------|

FILL 1: (just before chorus)
|-------------------|
|--19-19-19-19-19\--|
|--19-19-19-19-19\--|
|--19-19-19-19-19\--|
|--17-17-17-17-17\--|
|-------------------|

CHORUS
|----------------------------------------------------|
|----------------------------------------------------|
|----------------------------------------------------|
|------------3-----------3-----------3---------------|
|--5-----3h5---------3h5---------3h5------------0h3--|
|-----0-----------0-----------0-----------0h3h5------|


GUITAR SOLO
Play this eight times
|---------------------------|
|---------------------------|
|---------------------------|
|---------------------------|
|--x-x-x-x-x-x-x-x-x-x-x-x--|
|---------------------------|

Play this eigth times
|---------------------------|
|--10b----------------------|
|--12b----------------------|
|---------------------------|
|---------------------------|
|------------------x-x-x-x--|

Play this three times
|---------------------------------------------|
|--18b---------15b---------10b----------------|
|--20b---------17b---------12b----------------|
|---------------------------------------------|
|---------------------------------------------|
|------------------------------------x-x-x-x--|


Then bend this chord seven times
|--17b--|
|--19b--|
|-------|
|-------|
|-------|
|-------|


2ND INTERLUDE:
Hold each chord for 2 bars
|-----------------------------0--|
|--6--------6--------3--------3--|
|--5--------5--------2--------2--|
|--0--------0--------0--------0--|
|--3--------0--------0--------0--|
|--------------------------------|
Related for Revolver tab