Song name
# A B C D E F G H I J K L M N O P Q R S T U V W X Y Z

Rage Against The Machine - Snakecharmer tab

"Snakecharmer"
By: Rage Against the Machine

This tab is perfect.

Tuning (low to high):	EADGBe


INTRO
------------------|
-----18-------18--|
-----17-------17--| x8
-----16-------16--|
-----17-------17--|
--0--------0------|

VERSE: Riff 1

--------------------------|--------------------------|
--------------------------|--------------------------|
--------12----------------|--------12----------------|
--------------10/12--10/12|--------------12-12--11-10|
---------------x--x---x--x|---------------x--x---x--x|
--0--0-----0--10/12--10/12|--0--0-----0--12-12--11-10|

VERSE: Riff 2 / Chorus

--------------------------|--------------------------|
--------------------------|--------------------------|
--------12----------------|--------12----------------|
--------------10-12--10-12|--------------12-12--11-10|
--------------10-12--10-12|--------------12-12--11-10|
---0-------0--10-12--10-12|---0-------0--12-12--11-10|

VERSE: Interlude

--------------------------|
--------------------------|
--14-14-14-14-14-12-------| x4
--12-12-12-12-12-10-------|
--12-12-12-12-12-10--x-x--|
--12-12-12-12-12-10--x-x--|

Guitar Solo

Pick scratch on top string using wah at a moderate pace.
Listen to song to get the right sound, (which is micrphonic feedback, not string
vibration).  Ser=t neck pickup at 0, and bridge pickup at 10. Switch toggle
switch in triplet rhythm.

**Listen to song to for the riff structure.
Tap to rate this tab
# A B C D E F G H I J K L M N O P Q R S T U V W X Y Z