Song name
# A B C D E F G H I J K L M N O P Q R S T U V W X Y Z

Rage Against The Machine - Take The Power Back tab

Song: Take The Power Back
Band: Rage Against The Machine
Tabbed by: J.Dawg
Tuning: Drop d


This is probably close to it.
Well here it is.

                                            
Intro: |-Swell up the vol., as you slide.
       v                                   
e|--------------------------------------------|
b|--------------------------------------------|
g|-----------------------------------------2\-|
d|-11\---10\---9\---8~~~~~~~~~~~~~~~~~~~~~----|
a|--9\----8\---7\---6~~~~~~~~~~~~~~~~~~~~~----|
d|--------------------------------------------|





Riff:
e|-------------------------------------------------------------|
b|-------------------------------------------------------------|
g|-------------------------------------------------------------|
d|-------------3~-----------3~~-------------3~-----------3~~~~-|
a|-------3h5-x----x-x-3h5-x-----------3h5-x----x-x-3h5-x-------|
d|-0--0------x----x-x-----x-----0--0------x----x-x-----x-------|
   



e|------------------------------------------------|
b|------------------------------------------------|
g|------------------------------------------------|
d|-------------3~-----------3~~-------------------|
a|-------3h5-x----x-x-3h5-x-----------17\\\\\-----|
d|-0--0------x----x-x-----x-----0--0--17\\\\\-----|





Verse 1:
e|------------------------------------------------------------------|
b|------------------------------------------------------------------|
g|----7--7--7--7----x-x-x-5----------7--7--7--7----x-x-x-5----------|
d|----x--x--x--x----x-x-x-x----------x--x--x--x----x-x-x-x----------|
a|----5--5--5--5----x-x-x-3----------5--5--5--5----x-x-x-3----------|
d|-0----------------------------------------------------------------|




e|-------------------------------------------------------------|
b|-------------------------------------------------------------|
g|-7--7--7--7----x-x-x-5----------7----------------------------|
d|-x--x--x--x----x-x-x-x----------x----------------------------|
a|-5--5--5--5----x-x-x-3----------5--17\\\\\-------------------|
d|-----------------------------------17\\\\\-------------------|





Chorus:  I`m not for shure about this part, but ya never know.
e|----------------------------------------------------------------------------------|
b|-------------------9b-------------------------------------------------------------|
g|---10--------------9b-------------------------------------------------------------|
d|---10-------10--------------------------------------------------------------------|
a|---12-------10-------------------5~~~~----3--4-h5-------x-x-x-x--x-x-x-x--x-x-x-x-|
d|-0--------0--------------------0-------0-----------0--0-x-x-x-x--x-x-x-x--x-x-x-x-|




e|-----------------------------22-22-22-22----22-22-22-22-|
b|-------------------9b-----------------------------------|
g|---10--------------9b-----------------------------------|
d|---10-------10------------------------------------------|
a|---12-------10------------------------------------------|
d|-0--------0------------0--0-----------------------------|




e|------------------------------------------------|
b|------------------------------------------------|
g|------------------------------------------------|
d|------------------------------------------------|
a|---5~~~~----3--4-h5-----------12\---------------|
d|-0-------0-----------0--0-----12\---------------|




e|----------------------------------------------------------------------------------|
b|-------------------9b-------------------------------------------------------------|
g|---10--------------9b-------------------------------------------------------------|
d|---10-------10--------------------------------------------------------------------|
a|---12-------10-------------------5~~~~----3--4-h5-------x-x-x-x--x-x-x-x--x-x-x-x-|
d|-0--------0--------------------0-------0-----------0--0-x-x-x-x--x-x-x-x--x-x-x-x-|




e|-----------------------------------|
b|-----------------------------------|
g|---10------------------------------|
d|---10-------10~~~~~~~~~~~~~~~~~~~~-|
a|---12------------------------------|
d|-0--------0------------------------|




e|-----------------------------------|
b|-----------------------------------|
g|-----------------------------------|
d|-----------------------------------|
a|---5~~~~----3~~~~~~~~~~~~~~~~~~~~~-|
d|-0-------0-------------------------|






Verse 2:
e|------------------------------------------------------------------|
b|------------------------------------------------------------------|
g|----7--7--7--7----x-x-x-5----------7--7--7--7----x-x-x-5----------|
d|----x--x--x--x----x-x-x-x----------x--x--x--x----x-x-x-x----------|
a|----5--5--5--5----x-x-x-3----------5--5--5--5----x-x-x-3----------|
d|-0----------------------------------------------------------------|




e|-------------------------------------------------------------|
b|-------------------------------------------------------------|
g|-7--7--7--7----x-x-x-5----------7----------------------------|
d|-x--x--x--x----x-x-x-x----------x----------------------------|
a|-5--5--5--5----x-x-x-3----------5--17\\\\\-------------------|
d|-----------------------------------17\\\\\-------------------|





Solo:
e|---------------------------------------------------------------|
b|-13b----14~~~~-13b-13b----13----13~~~~-13b-13b----13----13~~~~-|
g|-12b-----------12b-12b-----------------12b-12b-----------------|
d|---------------------------------------------------------------|
a|---------------------------------------------------------------|
d|---------------------------------------------------------------|




e|------------------------10------------------------10----------|
b|-13b--14~~~~~-10-14~~~~----13-11p10~~~~~-10h11h13----13-11p10-|
g|-12b----------------------------------------------------------|
d|--------------------------------------------------------------|
a|--------------------------------------------------------------|
d|--------------------------------------------------------------|





e|-----------------------------------------------------------------|
b|--------------------------------------------------------13h15h17-|
g|-12-10-9br~~~~----12h14-12----------12h14-14h15h17-17~~----------|
d|---------------14----------15-14h15------------------------------|
a|-----------------------------------------------------------------|
d|-----------------------------------------------------------------|





e|-13-15h17-----13h17-15p13p12-13p12----------------13-------------|
b|-----------------------------------15p13h15p13h15----15br~~13h15-|
g|----------/14----------------------------------------------------|
d|-----------------------------------------------------------------|
a|-----------------------------------------------------------------|
d|-----------------------------------------------------------------|





e|-------15-17p15----------15h17p15----------15h17p15--------------|
b|-17h18----------18p17h18----------18p17h18----------18p17h18~~~~-|
g|-----------------------------------------------------------------|
d|-----------------------------------------------------------------|
a|-----------------------------------------------------------------|
d|-----------------------------------------------------------------|





e|-15-17h19b~~~-19-17-15-------------------------------------------|
b|-----------------------18-17-p15----------15---------------------|
g|---------------------------------17-16h17----17p16---------------|
d|---------------------------------------------------19-17p16------|
a|------------------------------------------------------------17~~-|
d|-----------------------------------------------------------------|





e|-------------------------------------------17/21-19p17------------------------|
b|----------------------------------17-15p13-------------18---------------------|
g|-------------------12h14/18-15p14-------------------------17-16h17p16~~~~-----|
d|----------12h14h15--------------------------------------------------------x-x-|
a|-12h13h15-----------------------------------------------------------------x-x-|
d|------------------------------------------------------------------------------|





e|--------------------------------------------------------------|
b|--------------------------------------------------------------|
g|-10-10-12----x-10-x-x----------------------10-10--10-10/12-12-|
d|-10-10-12-12-x-10-x-x-10/12-x-x------------10-10--10-10/12-12-|
a|----------------------10/12-x-x-8h10--------------------------|
d|-------------------------------------10h12--------------------|




e|---------------------------------------------------------|
b|---------------------------------------------------------|
g|-12--------------------10/12--12\10----------------------|
d|-12--------------------10/12--12\10--x-10~-9--8--7---6-6-|
a|---------hm12-hm7-hm5----------------x-----9--8--7---6-6-|
d|----hm12-------------------------------------------------|




e|----------------------------------------------------|
b|----------------------------------------------------|
g|-21-21-21-21-21-21----------------------------------|
d|-20-20-20-20-20-20----------------------------------|
a|----------------------------------------------------|
d|----------------------------------------------------|






Breakdown:
e|---------------------------------------------|
b|---------------------------------------------|
g|---------------------------------------------|
d|---------3--5----------------------3--5------|
a|-5~~-4~~-3--3--5~~-3~~-5~~-4~~-3~~-3--5--3~~-|
d|---------------------------------------------|




                         X2
e|-----------------------------------------|
b|-3b--5b--6b---8b---8b--------------------|
g|-5b--7b--8b--10b--10b--------------------|
d|-----------------------------------------|
a|-----------------------------------------|
d|-----------------------------------------|





e|----------------------------------------------|
b|----------------------------------------------|
g|----------------------------------------------|
d|-------------3--5-------------------3--5------|
a|-5~~-4~~-3~~-3--5--3~~~-5~~-4~~-3~~-3--5--3~~-|
d|----------------------------------------------|






Bridge:
e|-------------------------------------------------|
b|-------------------------------------------------|
g|-7-7-----7-7----------7-7--x-x-x-x-x-x----7-7----|
d|-7-7-----7-7----------7-7--x-x-x-x-x-x----7-7----|
a|-5-5-----5-5----------5-5--x-x-x-x-x-x----5-5----|
d|-------------------------------------------------|




     |---tr---|
e|-----22-2222-----------------------------------------|
b|-----------------------------------------------------|
g|-7-7---------7-7----------7-7--x-x-x-x-x-x----7-7----|
d|-7-7---------7-7----------7-7--x-x-x-x-x-x----7-7----|
a|-5-5---------5-5----------5-5--x-x-x-x-x-x----5-5----|
d|-----------------------------------------------------|



Outro:                              X4
e|-----------------------------------------------------------------|
b|-----------------------------------------------------------------|
g|-----------------------------------------------------------------|
d|---2----2----2----3----3----3----5----5----5----3----3----3----3-|
a|-3----3----3----3----3----3----3----3----3----3----3----3----3---|
d|-----------------------------------------------------------------|





                             X4
e|-------------------------------------------------|
b|-------------------------------------------------|
g|-7-6-5--x-x-7-6-5--x-x-7-6-5--x-5---5-5-5-5-5-6--|
d|-7-6-5--x-x-7-6-5--x-x-7-6-5--x-5---5-5-5-5-5-6--|
a|-5-4-3--x-x-5-4-3--x-x-5-4-3--x-3---3-3-3-3-3-4--|
d|-------------------------------------------------|





e|--------------------------------------------------|
b|--------------------------------------------------|
g|-7-6-5--x-x-7-6-5--x-x-7-6-5---x-5---5-5/7\5/7\5--|
d|-7-6-5--x-x-7-6-5--x-x-7-6-5---x-5---5-5/7\5/7\5--|
a|-5-4-3--x-x-5-4-3--x-x-5-4-3---x-3---3-3/5\3/5\3--|
d|--------------------------------------------------|





e|-----------------------------------------------------------|
b|------------------------------------------------7-----7\\--|
g|-7-6-5--x-x-7-6-5--x-x-7-6-5--x-5--5-5-5-5-5-6--7-----7\\--|
d|-7-6-5--x-x-7-6-5--x-x-7-6-5--x-5--5-5-5-5-5-6--7-----7\\--|
a|-5-4-3--x-x-5-4-3--x-x-5-4-3--x-3--3-3-3-3-3-4--5-----5\\--|
d|-----------------------------------------------------------|

Thats it, hope it was good. Enjoy!


|--------------------|
|   Guitar Key:      |
|                    |
|  x= Mute           |
|  \= Slide down     |
|  /= Slide up       |
|  hm= Harmonics     |
|  tr= Tremelo pick  |
|  ~= Vibrato        |
|  h= Hammer on      |
|  p= Pull off       |
|  br= Bend return   |
|--------------------|
Tap to rate this tab
# A B C D E F G H I J K L M N O P Q R S T U V W X Y Z