Song name
# A B C D E F G H I J K L M N O P Q R S T U V W X Y Z

Rage Against The Machine - Township Rebellion tab

-------------------------------------------------------------------------------
			     TOWNSHIP REBELLION - Rage Against The Machine
-------------------------------------------------------------------------------
Tabbed by: Fedora Bora
Email: kornkidcrazy@hotmail.com
Notes: This is my first tab so go easy on me ;)
Tuning: Drop D

Intro
e|----------------------------| *Note: The N means to plunk above the nut of 
B|--3--3--3-3-3---------------|  the 3rd string. With distortion, the sound 
G|--2--2--2-2-2----N-N-N-N----|  sounds better. If your guitar doesn't make 
D|--0--0--0-0-0---------------|  that sound (some don't), then find a pitch
A|--0--0--0-0-0---------------|  shifting pedal and make it go up 2 octives 
D|--0--0--0-0-0---------------|  and pluck the 7th fret on the 3rd string.

Verse
e|---| *Note: Pluck this every 4th beat for about 
B|---|  16 times, then comes the chorus.
G|-N-|
D|---|
A|---|
D|---|

Chorus
e|------------------------|------------------------| *Note: Play all these 
B|------------------------|------------------------|  riffs in order 2
G|------------------------|------------------------|  times.
D|------------------------|------------------------|
A|--3h5-----3h5------3-5--|--3h5-----3h5------5-2--|
D|------0-0-----0-0--3-5--|------0-0-----0-0----2--|

e|------------------------|---------------------------|
B|------------------------|---------------------------|
G|------------------------|---------------------------|
D|------------------------|----------------5/7-5-3----|
A|--3h5-----3h5------3-5--|--3h5-----3h5-----------5--|
D|------0-0-----0-0--3-5--|------0-0-----0------------|

Pre 2nd Verse
e|---------------|
B|--3--3--3-3-3--|
G|--2--2--2-2-2--|
D|--0--0--0-0-0--|
A|--0--0--0-0-0--|
D|--0--0--0-0-0--|

2nd Verse
e|-----|---------| *Note: This part is very tricky and even harder if 
B|-----|---------|  you havn't played it a lot. Play first riff here 8
G|--N--|------N--|  times, just like in Verse 1, but this time on the 9th
D|-----|--9------|  time around, play riff 2 and continue to do that 8
A|-----|--10-----|  more times, so just like Verse 1 the riffs are played
D|-----|---------|  16 times. 

2nd Chorus
e|------------------------|------------------------| *Note: Play all these 
B|------------------------|------------------------|  riffs in order 2
G|------------------------|------------------------|  times.
D|------------------------|------------------------|
A|--3h5-----3h5------3-5--|--3h5-----3h5------5-2--|
D|------0-0-----0-0--3-5--|------0-0-----0-0----2--|

e|------------------------|---------------------------|
B|------------------------|---------------------------|
G|------------------------|---------------------------|
D|------------------------|----------------5/7-5-3----|
A|--3h5-----3h5------3-5--|--3h5-----3h5-----------5--|
D|------0-0-----0-0--3-5--|------0-0-----0------------|

Pre Solo
e|--------------------------------------| *Note: This is different from all
B|--3--3--3-3-3-------------------------|  of the other times because now you
G|--2--2--2-2-2----xxxxxxxxxxxxxxxx-0-0-|  have to tremolo pluck the 3rd and  
D|--0--0--0-0-0----xxxxxxxxxxxxxxxx-----|  4th stings about 16 times like 
A|--0--0--0-0-0-------------------------|  crazy!
D|--0--0--0-0-0H10----------------------|

Solo
e|----------------------------------------------------|
B|----------------------------------------------------|
G|-----11--12-14-14~-----------10----------14-14-14~--|
D|--12----------------11-12-11----14-12-11------------|
A|----------------------------------------------------|
D|----------------------------------------------------|

e|--------------------10------------------------------|
B|-----------10-11-14-----14-14-14~--14-15-17B--17----|
G|--11-12-14------------------------------------------|
D|----------------------------------------------------|
A|----------------------------------------------------|
D|----------------------------------------------------|

e|----------14-15-17B--17-15-14-15-15-15-14-----------|
B|-14-15-17---------------------------------15--------|
G|---------------------------------------------16~----|
D|----------------------------------------------------|
A|----------------------------------------------------|
D|----------------------------------------------------|

e|-14-15-17-15-14------------10-11-12-11-10-----------|
B|----------------17B--5-5~-----------------12-11-10--|
G|----------------------------------------------------|
D|----------------------------------------------------|
A|----------------------------------------------------|
D|----------------------------------------------------|

e|-------------------------------------------------------|
B|----11-10----------------------------------------------|
G|-12-------12-11-10-12-11-10-11-12-11-10----------------|
D|----------------------------------------12-11-10-11-12-|
A|-------------------------------------------------------|
D|-------------------------------------------------------|

e|-----10-12-13-12-10----------------10-12-13-12-10-|
B|--------------------13-12-10-12-13----------------|
G|-10-----------------------------------------------|
D|--------------------------------------------------|
A|--------------------------------------------------|
D|--------------------------------------------------|

e|----------------10-12-13-12-10-----10-11-12-11-10-|
B|-13-12-10-12-13----------------12-----------------|
G|--------------------------------------------------|
D|--------------------------------------------------|
A|--------------------------------------------------|
D|--------------------------------------------------|

e|-------------------------------------------------|
B|-12-11-10----11-10-------------------------------|
G|----------12-------12-11-10-12-11-10-11-12-11-10-|
D|-------------------------------------------------|
A|-------------------------------------------------|
D|-------------------------------------------------|

e|-----------------------12-15-13-12----------17-15-13-12-|
B|--------------------15-------------15-13-12-------------|
G|----------------10--------------------------------------|
D|-12-11-10-11-12-----------------------------------------|
A|--------------------------------------------------------|
D|--------------------------------------------------------|

e|-------18----19-22-22-22-22-22-22~-| *Note: This solo is a pain in the
B|-13-13----18-----------------------|  ass! All I can say is practice and
G|-----------------------------------|  listen to the song.
D|-----------------------------------|
A|-----------------------------------|
D|-----------------------------------|

3rd Chorus
e|------------------------|------------------------| *Note: Play all these 
B|------------------------|------------------------|  riffs in order 2
G|------------------------|------------------------|  times.
D|------------------------|------------------------|
A|--3h5-----3h5------3-5--|--3h5-----3h5------5-2--|
D|------0-0-----0-0--3-5--|------0-0-----0-0----2--|

e|------------------------|---------------------------|
B|------------------------|---------------------------|
G|------------------------|---------------------------|
D|------------------------|----------------5/7-5-3----|
A|--3h5-----3h5------3-5--|--3h5-----3h5-----------5--|
D|------0-0-----0-0--3-5--|------0-0-----0------------|

Pre Bridge
e|---------------| *Note: Strum 4 times, not 5 but let the notes ring a tad
B|--3--3--3-3R---|  while the next riff is being played.
G|--2--2--2-2R---|
D|--0--0--0-0R---|
A|--0--0--0-0R---|
D|--0--0--0-0R---|
Bridge
e|-----------------| *Note: Play this 2 times.
B|-----------------|
G|-----------------|
D|-----------------|
A|-5-5-5-5---------|
D|---------0--0-0--|

e|-----------------|---------------------| *Note: Play these riffs in order
B|-----------------|---------------------|  3 times, which is a total of 
G|-----------------|---------------------|  6 riffs.
D|-----------------|---------------------|
A|-5-5-5-5---------|-5-5-5-5---------3-5-|
D|---------0--0-0--|---------0--0-0--3-5-|

e|---------------------------------| *Note: Play this riff 19 times.
B|---------------------------------|
G|---------------------------------|
D|pm>>>>>>>>>>>>>>>>>>>>>>>>>>>>>pm|
A|-5-5-5-5-----------------3-3-5-5-|
D|---------0-0-0-0-0-0-0-0---------|

e|---------------------------------|
B|---------------------------------|
G|---------------------------------|
D|---------------------------------|
A|-5-5-5-5-0-0-0-0-0-0-0-0--3--5---|
D|---------0-0-0-0-0-0-0-0--3--5---|

e|--------------------------------| *Note: Play this 8 times.
B|--------------------------------|
G|--------------------------------|
D|-7-7-7-7------------------------|
A|-5-5-5-5-----0---0---0---3--5---|
D|-------------0---0---0---3--5---|

4th Chorus
e|------------------------|------------------------| *Note: Play all these 
B|------------------------|------------------------|  riffs in order 2
G|------------------------|------------------------|  times.
D|------------------------|------------------------|
A|--3h5-----3h5------3-5--|--3h5-----3h5------5-2--|
D|------0-0-----0-0--3-5--|------0-0-----0-0----2--|

e|------------------------|---------------------------|
B|------------------------|---------------------------|
G|------------------------|---------------------------|
D|------------------------|----------------5/7-5-3----|
A|--3h5-----3h5------3-5--|--3h5-----3h5-----------5--|
D|------0-0-----0-0--3-5--|------0-0-----0------------|

Outro
e|-----------|
B|--3--3--3--|
G|--2--2--2--|
D|--0--0--0--|
A|--0--0--0--|
D|--0--0--0--|

| /  slide up
| \  slide down
| H  hammer-on
| p  pull-off
| ~  vibrato
| +  harmonic
| x  Mute note
| B  Bend note
| R  Let note ring
| pm Palm mute
===============================================================================
Tap to rate this tab
# A B C D E F G H I J K L M N O P Q R S T U V W X Y Z