Guitaretab - guitar tabs
Song name
# A B C D E F G H I J K L M N O P Q R S T U V W X Y Z

Rage Against The Machine - Without A Face tab

<<< Without A Face >>>

by 'Rage Against The Machine' from 'Evil Empire'

Tabbed by Liam Jemmeson [p.l.u.c.k.01@hotmail.com]

Symbols:

>  ~ = Let Ring
>  / = Slide Up
>  \ = Slide Down
>  x = Scratch Strings (Or pm, whatever sounds right) 
> pm = Palm Mute betweew lines (|--|) and where single lines are (|)
>  : = Mute note   
>  h = Hammer-on
>  p = Pull off  
>  b = Bend
>  r = Release bend/whammy
>(#) = Bend [b(#)] or wammy [w(#)] to sound like bracketed note
> w/ = Whammy up
> w\ = Whammy down
>{*} = Feedback
>  ' = Tremolo Pick
>  + = Wah Closed
>  o = Wah Open
>+/o = Gradually Close/Release Wah
>[#] = Harmonic
 
- Standard Tuning

  |Intro/Verse w/distortion - Do this Until the Pre-Chorus kicks in
E |----------------------------------------------------------------|
B |----------------------------------------------------------------|
G |--[8]-[8]-[8]-[8]-[8]-[8]-[8]-[8]-[8]-[8]-[8]-[8]-[8]-[8]-[8]---|
D |----------------------------------------------------------------|
A |----------------------------------------------------------------|
E |----------------------------------------------------------------|


  |Pre-chorus w/Wah x4
E |-------------------------|
B |-------------------------|
G |-------------------------|
D |-------------------------|
A |-------------------------|
E |---3p1h3p1h3p1h3p1h3~----|
Wah   +///////////////o


  |Chorus Pt I - w/Wah x4
E |----------------------------------------------------|
B |----------------------------------------------------|
G |------------------------------------------------3~--|
D |----------------------------------------------------|
A |----------------------------------------------------|
E |---3p1h3p1h3p1h3p1h3p1h3p1h3p1h3p1---1--3:----------|
Wah   +///////o///////+///////o/////+   +  +       o

[ Tab from: http://www.guitaretab.com/r/rage-against-the-machine/15469.html ]
  |Chorus Pt II - w/Wah
E |----------------------------------------------------|
B |----------------------------------------------------|
G |----------------------------------------------------|
D |----------------------------------------------------|
A |----------------------------------------------------|
E |---3p1h3p1h3p1h3p1h3p1h3p1h3p1h3p1---1--3:----------|
Wah   +///////o///////+///////o/////+   +  +


  |Verse - Played behind Chorus Pt II and until next Chorus
E |----------------------------------------------------------------|
B |----------------------------------------------------------------|
G |--[8]-[8]-[8]-[8]-[8]-[8]-[8]-[8]-[8]-[8]-[8]-[8]-[8]-[8]-[8]---|
D |----------------------------------------------------------------|
A |----------------------------------------------------------------|
E |----------------------------------------------------------------|


  |Pre-chorus w/Wah x4 "When I tried to cross the white walls"
E |-------------------------|
B |-------------------------|
G |-------------------------|
D |-------------------------|
A |-------------------------|
E |---3p1h3p1h3p1h3p1h3~----|
Wah   +///////////////o


  |Chorus Pt I - w/Wah x4
E |----------------------------------------------------|
B |----------------------------------------------------|
G |------------------------------------------------3~--|
D |----------------------------------------------------|
A |----------------------------------------------------|
E |---3p1h3p1h3p1h3p1h3p1h3p1h3p1h3p1---1--3:----------|
Wah   +///////o///////+///////o/////+   +  +       o


(Sorry, no solo for now. I might add it later)


  |Outro Pt I 
E |-------------------------------------------|
B |-------------------------------------------|
G |-------------------------------------------|
D |-------------------------------------------|
A |-------------------------------------------|
E |--3~----------------3--1--3--1--3--1--3--1-|
     

  |Outro Pt II (Where the drums kick in) - x8
E |-------------------------------------------|
B |-------------------------------------------|
G |-------------------------------------------|
D |-------------------------------------------|
A |-------------------------------------------|
E |--3--1--3--1--3--1--3--1-------------------|


  |Outro Pt III
E |-------------------------|
B |-------------------------|
G |-------------0~---0-:----|
D |-------------0~---0-:----|
A |-------------x----x------|
E |---3~--b-r---3~---3\:----|


Please rate or leave a comment
Related for Without A Face tab
Advertisement will be closed in 10 seconds