Song name
# A B C D E F G H I J K L M N O P Q R S T U V W X Y Z

Rage Against The Machine - Snakecharmer tab

-------------------------------------------------------------------------------
Snake Charmer  Rage Against The Machine
-------------------------------------------------------------------------------
Tabbed by: goozers
Email: goozers95@hotmail.com

This Is My First Tab and I Hope Every Looks Alright E-mail Me If You Have Any Complaints
Corrections

Tuning: Drop D

e|----------------------------------------------------------------------------------|
B|---18---18---18---18---18---18---18---18---18---18---18---18---18---18---18---18--|
G|---17---17---17---17---17---17---17---17---17---17---17---17---17---17---17---17--|
D|---16---16---16---16---16---16---16---16---16---16---16---16---16---16---16---16--|
A|---17---17---17---17---17---17---17---17---17---17---17---17---17---17---17---17--|
D|-0----0----0----0----0----0----0----0----0----0----0----0----0----0----0----0-----|

e|---------------------------------------------|
B|---------------------------------------------|
G|-----12--------------------12----------------| x8
D|---------------------------------------------|
A|---------------------------------------------|
D|-0-0----0-10-12-10-12--0-0----0-12-12-11-10--|

e|------------------------------------------------|
B|------------------------------------------------|
G|-----12----------------------12-----------------| x4
D|-0--------10-12-10-12----0---------12-12-11-10--|
A|-0--------10-12-10-12----0---------12-12-11-10--|
D|-0--------10-12-10-12----0---------12-12-11-10--|

e|-------------------------------------------------------|
B|-------------------------------------------------------|
G|-------------------------------------------------------| x4
D|-12-12-12-12-12-10--x-x----12-12-12-12-12-10--x-x-x-x--|
A|-12-12-12-12-12-10--x-x----12-12-12-12-12-10--x-x-x-x--|
D|-12-12-12-12-12-10--x-x----12-12-12-12-12-10--x-x-x-x--|

e|----------------------------------------------------------------------------------|
B|---18---18---18---18---18---18---18---18---18---18---18---18---18---18---18---18--|
G|---17---17---17---17---17---17---17---17---17---17---17---17---17---17---17---17--|
D|---16---16---16---16---16---16---16---16---16---16---16---16---16---16---16---16--|
A|---17---17---17---17---17---17---17---17---17---17---17---17---17---17---17---17--|
D|-0----0----0----0----0----0----0----0----0----0----0----0----0----0----0----0-----|

e|----------------------------------|
B|----------------------------------|
G|----------------------------------|
D|----------------------------------|
A|-------------------------5--3-----|
D|-0--0--5--3--0--7--5--0--------3--|

e|----------------------------------|
B|----------------------------------|
G|----------------------------------|
D|----------------------------------|
A|-------------------------------0--|
D|-0-/12---12-12--12--10---5--3--0--|

For The solo, (I highly doubt this is right but this is how i do it) tremolo pick the
fret harmonic of the B string and the 7th fret harmonic of the high e string. BUT do not
them at once what you want to do is hit the B string for a little bit then move up to 
e string for a sec. Try to use Variation and it will sound almost like Tom plays it.

e|---------------------------------------------|
B|---------------------------------------------|
G|-----12--------------------12----------------| x8
D|---------------------------------------------|
A|---------------------------------------------|
D|-0-0----0-10-12-10-12--0-0----0-12-12-11-10--|

e|------------------------------------------------|
B|------------------------------------------------|
G|-----12----------------------12-----------------| x4
D|-0--------10-12-10-12----0---------12-12-11-10--|
A|-0--------10-12-10-12----0---------12-12-11-10--|
D|-0--------10-12-10-12----0---------12-12-11-10--|

e|-------------------------------------------------------|
B|-------------------------------------------------------|
G|-------------------------------------------------------| x4
D|-12-12-12-12-12-10--x-x----12-12-12-12-12-10--x-x-x-x--|
A|-12-12-12-12-12-10--x-x----12-12-12-12-12-10--x-x-x-x--|
D|-12-12-12-12-12-10--x-x----12-12-12-12-12-10--x-x-x-x--|

e|----------------------------------------------------------------------------------|
B|---18---18---18---18---18---18---18---18---18---18---18---18---18---18---18---18--|
G|---17---17---17---17---17---17---17---17---17---17---17---17---17---17---17---17--|
D|---16---16---16---16---16---16---16---16---16---16---16---16---16---16---16---16--|
A|---17---17---17---17---17---17---17---17---17---17---17---17---17---17---17---17--|
D|-0----0----0----0----0----0----0----0----0----0----0----0----0----0----0----0-----|

e|----------------------------------|
B|----------------------------------|
G|----------------------------------|
D|----------------------------------|
A|-------------------------5--3-----|
D|-0--0--5--3--0--7--5--0--------3--|

e|----------------------------------|
B|----------------------------------|
G|----------------------------------|
D|----------------------------------|
A|-------------------------------0--|
D|-0-/12---12-12--12--10---5--3--0--|


Lyrics:
Satellites and mirrors and a man without a home
A horse and a rider and a clever cunning killer
Silent in error and vocal in spotlights
Lying always sucking on a bottle of that sweet indulgent fluid
Oh greed, oh yes, oh greed, oh yes
Your friendship is a fog
It disappears when the wind redirects
You, yes you
A father's expectations, soul soaked in spit and urine
And you gotta make it where
To a sanctuary that's only a fragile American hell
An empty dream, a selfish, horrific vision
Passed on like the deadliest of viruses
Crushing you and your naive compassions
So have no illusions boy
Vomit up all ideals and serve
Sleep and wake, and serve
Dont think just wake and serve
You friendship is a fog
It disappears when the wind redirects you
Interested in you, interested in you

| /  slide up
| \  slide down
| h  hammer-on
| p  pull-off
| ~  vibrato
| +  harmonic
| x  Mute note
===============================================================================
Tap to rate this tab
# A B C D E F G H I J K L M N O P Q R S T U V W X Y Z