Song name
# A B C D E F G H I J K L M N O P Q R S T U V W X Y Z

Rage Against The Machine - Township Rebellion tab

                 Township Rebellion- Rage Against The Machine


Tabbed by: ethanhausler
Email: ethanhausler@yahoo.com

Tuning: Drop D




Intro             
e|----------------------22-22-22-22--------------------------------------|
B|-----------------------------------------------------------------------|
G|-----------------------------------------------------------------------|
d|---0-0--0-0-0----------------------------------------------------------|
A|---0-0--0-0-0----------------------------------------------------------|
D|---0-0--0-0-0----------------------------------------------------------|

For verses repeat that single note on the 22nd fret. 

Chorus
e|------------------------------------------------------------------------|
B|------------------------------------------------------------------------|
G|------------------------------------------------------------------------|
d|------------------------------------------------------------------------|
A|--------------------------------3-5----------------------------5---2----|
D|------10h12-0-0----10h12--0-0---3-5----10h12-0-0---10h12--0-0------2----|

e|------------------------------------------------------------------------|
B|------------------------------------------------------------------------|
G|------------------------------------------------------------------------|
d|------------------------------------------------------------------------|
A|---------------3-5-----------10b(11)-10-8-5~----------------------------|
D|---10h12-0-0---3-5---10h12-0--------------------------------------------|

Interlude
e|-------------------------------------------------------------------------|
B|-------------------------------------------------------------------------|
G|-------------------------------------------------------------------------|
D|-------------------------------------------------------------------------|
A|---------------------------------------------3--5------------------------|
D|---12-12-12-12-0-0-0-----12-12-12-12-0-0-0---3--5------------------------|

Interlude part two (palm mute all)
e|------------------------------------------------------------------------|
B|------------------------------------------------------------------------|
G|------------------------------------------------------------------------|
D|------------------------------------------------------------------------|
A|------------------------------------------------------------------------|
D|-12-12-12-12-0-0-0-0-0-0-0-0--3-3-5-5-----------------------------------|

Interlude part three
e|------------------------------------------------------------------------|
B|------------------------------------------------------------------------|
G|------------------------------------------------------------------------|
D|------------------------------------------------------------------------|
A|---------------------3-5-----------------------3-5----------------------|
D|---12-12-12-12-0-0-0-3-5-----12-12-12-12-0-0-0-3-5----------------------|


Outro
e|------------------------------------------------------------------------|
B|------------------------------------------------------------------------|
G|------------------------------------------------------------------------|
D|------------------------------------------------------------------------|
A|--0------0-0------------------------------------------------------------|
D|--0------0-0---12\------------------------------------------------------|


************************************

| /   slide up
| \   slide down
| h   hammer-on
| p   pull-off
| ~   vibrato
| +   harmonic
| x   Mute note
| b   Bend
| pb  Pre-bend
| br  Bend release
| pbr Pre-bend release
| brb Bend release bend

************************************
Tap to rate this tab
# A B C D E F G H I J K L M N O P Q R S T U V W X Y Z