Song name
# A B C D E F G H I J K L M N O P Q R S T U V W X Y Z

Rage Against The Machine - Im Housin tab

-------------------------------------------------------------------------------
			Iím Housiní Ė Rage Against the Machine
-------------------------------------------------------------------------------
Tabbed by: Dalton P.
Email: dalton0217@hotmail.com

Tuning: Standard (EADGBe)

Bass Intro: (you can play it like this)
e|--------------------------------------|
B|--------------------------------------|
G|--------------------------------------|
D|--------------------------------------|
A|--------------------------------------|
E|--0---15--12ó-11ó-10--7--6----3h5--0--|

Verse: (with wah)
e|-----------------------------|
B|-----------------------------|
G|--9----12------9--9-9----12--|
D|--x----x-------x--x-x----x---|
A|--7----10------7--7-7----10--|
E|-----------------------------|

Pre Chorus: (with distortion and hammer on pretty fast)
e|------------|
B|------------|
G|------------|
D|------------|
A|--5h7ó-5h7--|
E|--0----0----|

Then: (with distortion)
e|---------------------------|
B|---------------------------|
G|---------------------------|
D|---------------------------|
A|--7----7----7----7-----10--|
E|----0----0----0----0-0-----|

Chorus: (with distortion)
e|--------------------------|
B|--------------------------|
G|--------------------------|
D|--------------------------|
A|--7--7------5----5--------|
E|--------5-7--------7-5-3--|

Solo: (Tom uses some kind of effect here Iím not sure what)
e|--12-----10--12-----------------|
B|-----------------10--12--8--10--|
G|--------------------------------|
D|--------------------------------|
A|--------------------------------|
E|--------------------------------|

(this part is with wah and I think distortion)
e|--12--12----12--12-----------------------------------------------------|
B|--12--12----12--12-----------------------------------------------------|
G|----------------------14b15r14--12----12---------------12--------------|
D|-----------------------------------14------14--12--14------14--12--14--|
A|-----------------------------------------------------------------------|
E|-----------------------------------------------------------------------|

e|--12--12----12--12----15-12-12----15-12-12----12-15-12-15-12-----------|
B|--12--12----12--12-------------15----------15--------------------------|
G|-----------------------------------------------------------------------|
D|-----------------------------------------------------------------------|
A|-----------------------------------------------------------------------|
E|-----------------------------------------------------------------------|


Well, that should be all of it. For any questions email me at dalton0217@hotmail.com


************************************

Tap to rate this tab
 
# A B C D E F G H I J K L M N O P Q R S T U V W X Y Z