Song name
# A B C D E F G H I J K L M N O P Q R S T U V W X Y Z

Rage Against The Machine - Born Of A Broken Man tab

yo this is my firs tab so be nice with me i copy fron other tabs and some parts is by my 
stuff.....enjoy and rate please


 clean

e|-----------------------------------------------------||
B|-----------------------------------------------------||
G|-1414141414141414131313/16161612121212121212124-2-2--||
D|-0-0-0-0-0-0-0-0-0-0-0--0-0-0-0-0-0-0-0-0-0-0-0-0-0--||
A|-0-0-0-0-0-0-0-0-0-0-0--0-0-0-0-0-0-0-0-0-0-0-0-0-0--||
D|-----------------------------------------------------||

 clean
e|-----------------------------------------------------||
B|-----------------------------------------------------||
G|-1414141414141414131313/16161612121212121212124-2-2--||
D|-0-0-0-0-0-0-0-0-0-0-0--0-0-0-0-0-0-0-0-0-0-0-0-0-0--||
A|-0-0-0-0-0-0-0-0-0-0-0--0-0-0-0-0-0-0-0-0-0-0-0-0-0--||
D|-----------------------------------------------------||

heavy distorcion

e|-----------------------------------------------------||
B|-----------------------------------------------------||
G|-----------------------------------------------------||
D|-----5/6-5-------------------------------------------||
A|------------3------3-0 XXXX-3-0-----3-0--------------||
D|-0------------3--0-----XXxx-----3-0------------------||
heavy distorcion
e|-----------------------------------------------------||
B|-----------------------------------------------------||
G|-----------------------------------------------------||
D|-----5/6-5-------------------------------------------||
A|------------3------3-0 XXXX-3-0-----3-0--------------||
D|-0------------3--0-----XXxx-----3-0------------------||
heavy distorcion
e|-----------------------------------------------------||
B|-----------------------------------------------------||
G|-----------------------------------------------------||
D|-----5/6-5----------------------2-2b-2b-2b-2b-2b-2b-2||
A|------------3------3-0 XXXX-3-0----------------------||
D|-0------------3--0-----XXxx--------------------------||
heavy distorcion
e|-----------------------------------------------------||
B|-----------------------------------------------------||
G|-----------------------------------------------------||
D|-----5/6-5-------------------------------------------||
A|------------3------3-0 XXXX-3-0-----3-0--------------||
D|-0------------3--0-----XXxx-----3-0------------------||

clean
e|-----------------------------------------------------||
B|-----------------------------------------------------||
G|-1414141414141414131313/16161612121212121212124-2-2--||
D|-0-0-0-0-0-0-0-0-0-0-0--0-0-0-0-0-0-0-0-0-0-0-0-0-0--||
A|-0-0-0-0-0-0-0-0-0-0-0--0-0-0-0-0-0-0-0-0-0-0-0-0-0--||
D|-----------------------------------------------------||
clean

e|-----------------------------------------------------||
B|-----------------------------------------------------||
G|-1414141414141414131313/16161612121212121212124-2-2--||
D|-0-0-0-0-0-0-0-0-0-0-0--0-0-0-0-0-0-0-0-0-0-0-0-0-0--||
A|-0-0-0-0-0-0-0-0-0-0-0--0-0-0-0-0-0-0-0-0-0-0-0-0-0--||
D|-----------------------------------------------------||

clean
e|-----------------------------------------------------||
B|-----------------------------------------------------||
G|-1414141414141414131313/16161612121212121212124-2-2--||
D|-0-0-0-0-0-0-0-0-0-0-0--0-0-0-0-0-0-0-0-0-0-0-0-0-0--||
A|-0-0-0-0-0-0-0-0-0-0-0--0-0-0-0-0-0-0-0-0-0-0-0-0-0--||
D|-----------------------------------------------------||
heavy distorcion
e|-----------------------------------------------------||
B|-----------------------------------------------------||
G|-----------------------------------------------------||
D|-----5/6-5-------------------------------------------||
A|------------3------3-0 XXXX-3-0-----3-0--------------||
D|-0------------3--0-----XXxx-----3-0------------------||
heavy distorcion
e|-----------------------------------------------------||
B|-----------------------------------------------------||
G|-----------------------------------------------------||
D|-----5/6-5-------------------------------------------||
A|------------3------3-0 XXXX-3-0-----3-0--------------||
D|-0------------3--0-----XXxx-----3-0------------------||
heavy distorcion
e|-----------------------------------------------------||
B|-----------------------------------------------------||
G|-----------------------------------------------------||
D|-----5/6-5----------------------2-2b-2b-2b-2b-2b-2b-2||
A|------------3------3-0 XXXX-3-0----------------------||
D|-0------------3--0-----XXxx--------------------------||
heavy distorcion
e|-----------------------------------------------------||
B|-----------------------------------------------------||
G|-----------------------------------------------------||
D|-----5/6-5-------------------------------------------||
A|------------3------3-0 XXXX-3-0-----3-0--------------||
D|-0------------3--0-----XXxx-----3-0------------------||
heavy distorcion
e|-------------------||
B|-------------------||
G|-------------5~5-7~||
D|-------------------||
A|-------------------||
D|-0-0-0-0-0-0-------||
heavy distorcion
e|-------------------||
B|-------------------||
G|-------------5~5-7~||
D|-------------------||
A|-------------------||
D|-0-0-0-0-0-0-------||
heavy distorcion
e|-------------------||
B|-------------------||
G|-------------5~5-7~||
D|-------------------||
A|-------------------||
D|-0-0-0-0-0-0-------||
heavy distorcion
e|----------------------||
B|----------------------||
G|----------------------||
D|-----5/6-5------------||
A|------------3------3-0||
D|-0------------3--0----||
clean
e|-----------------------------------------------------||
B|-----------------------------------------------------||
G|-1414141414141414131313/16161612121212121212124-2-2--||
D|-0-0-0-0-0-0-0-0-0-0-0--0-0-0-0-0-0-0-0-0-0-0-0-0-0--||
A|-0-0-0-0-0-0-0-0-0-0-0--0-0-0-0-0-0-0-0-0-0-0-0-0-0--||
D|-----------------------------------------------------||
clean
e|-----------------------------------------------------||
B|-----------------------------------------------------||
G|-1414141414141414131313/16161612121212121212124-2-2--||
D|-0-0-0-0-0-0-0-0-0-0-0--0-0-0-0-0-0-0-0-0-0-0-0-0-0--||
A|-0-0-0-0-0-0-0-0-0-0-0--0-0-0-0-0-0-0-0-0-0-0-0-0-0--||
D|-----------------------------------------------------||

with wah wah

e|-----------------------------------------------------||
B|-----------------------------------------------------||
G|-----------------------------------------------------||
D|-----5/6-5-------------------------------------------||
A|------------3------3-0 XXXX-3-0-----3-0--------------||
D|-0------------3--0-----XXxx-----3-0------------------||

heavy distorcion


e|-----------------------------------------------------||
B|-----------------------------------------------------||
G|-----------------------------------------------------||
D|-----5/6-5-------------------------------------------||
A|------------3------3-0 XXXX-3-0-----3-0--------------||
D|-0------------3--0-----XXxx-----3-0------------------||
heavy distorcion
e|-----------------------------------------------------||
B|-----------------------------------------------------||
G|-----------------------------------------------------||
D|-----5/6-5-------------------------------------------||
A|------------3------3-0 XXXX-3-0-----3-0--------------||
D|-0------------3--0-----XXxx-----3-0------------------||
heavy distorcion
e|-----------------------------------------------------||
B|-----------------------------------------------------||
G|-----------------------------------------------------||
D|-----5/6-5----------------------2-2b-2b-2b-2b-2b-2b-2||
A|------------3------3-0 XXXX-3-0----------------------||
D|-0------------3--0-----XXxx--------------------------||
heavy distorcion
e|-----------------------------------------------------||
B|-----------------------------------------------------||
G|-----------------------------------------------------||
D|-----5/6-5-------------------------------------------||
A|------------3------3-0 XXXX-3-0-----3-0--------------||
D|-0------------3--0-----XXxx-----3-0------------------||
heavy distorcion
e|-------------------||
B|-------------------||
G|-------------5~5-7~||
D|-------------------||
A|-------------------||
D|-0-0-0-0-0-0-------||
heavy distorcion
e|-------------------||
B|-------------------||
G|-------------5~5-7~||
D|-------------------||
A|-------------------||
D|-0-0-0-0-0-0-------||
heavy distorcion
e|-------------------||
B|-------------------||
G|-------------5~5-7~||
D|-------------------||
A|-------------------||
D|-0-0-0-0-0-0-------||
heavy distorcion
e|----------------------||
B|----------------------||
G|----------------------||
D|-----5/6-5------------||
A|------------3------3-0||
D|-0------------3--0----||
heavy distorcion
e|-------------------||
B|-------------------||
G|-------------5~5-7~||
D|-------------------||
A|-------------------||
D|-0-0-0-0-0-0-------||
heavy distorcion
e|-------------------||
B|-------------------||
G|-------------5~5-7~||
D|-------------------||
A|-------------------||
D|-0-0-0-0-0-0-------||
heavy distorcion
e|-------------------||
B|-------------------||
G|-------------5~5-7~||
D|-------------------||
A|-------------------||
D|-0-0-0-0-0-0-------||
heavy distorcion
e|----------------------||
B|----------------------||
G|----------------------||
D|-----5/6-5------------||
A|------------3------3-0||
D|-0------------3--0----||
Tap to rate this tab
 
# A B C D E F G H I J K L M N O P Q R S T U V W X Y Z