Song name
# A B C D E F G H I J K L M N O P Q R S T U V W X Y Z

Rage Against The Machine - Born Of A Broken Man tab

Help us improve GuitareTab! Take a short survey!
This is extremly similar to another tab, but 
i thought that there was one too many notes in the chorus.
This sounds better to me, but it could be because im playing 
on an acoustic.  
Tuning - (D,A,D,G,B,e)

fb = Full Bend
X = Palm Mute
~ = Tremolo
/ = Slide Up
()fb = Bend note fully whilst hitting notes
= = Let ring

Verse - Clean (Slight Echo + slight Distortion)
e|-----------------------------------------------------
B|-----------------------------------------------------
G|-14--14--14-14--14-14-14-14---13--13--13-13-16--16-16
D|-0---0---0--0---0--0--0--0----0---0---0--0--0---0--0-
A|-0---0---0--0---0--0--0--0----0---0---0--0--0---0--0-
D|-----------------------------------------------------
					
--------------------------------------|
--------------------------------------|
-0---0---0--0---0--0---0--0---4----2-2|
-0---0---0--0---0--0---0--0---0----0-0| 
-X---X---X--X---X--X---X--X---0----0-0|
-17--17--17-17--17-17--17-17----------|


Chorus - Heavy distortion
e|-----------------------------------------------|
B|-----------------------------------------------|
G|-----------------------------------------------|
D|---5fb-----------------X-X-X-X-----------------|
A|0------3--0--7-0-3--0--X-X-X-X--3--0--7-0-0-3-0|
D|0------3--0--7-0-3--0--X-X-X-X--3--0--7-0-0-3-0|


Chorus Fill - Heavy distortion
e|-------------------------------------------------|
B|-------------------------------------------------|
G|-------------------------------------------------|
D|---5fb-----------------X-X-X-X-------(55555555)fb|
A|0------3--0--7-0-3--0--X-X-X-X--3--0-------------|
D|0------3--0--7-0-3--0--X-X-X-X--3--0-------------|


Solo - Heavy distortion
e|---------------------------|
B|---------------------------|
G|---------------------------|
D|---------------------------|
A|0-0-0-0-0-0-0-15~~~~-15/17~|
D|0-0-0-0-0-0-0--------------|


Solo Outro - Heavy Distortion
e|-----------------------------|
B|-----------------------------|
G|-----------------------------|
D|---5fb-----------------------|
A|0------3--0--7-0-3--0========|
D|0------3--0--7-0-3--0========|


Verse x 2
Chorus x 2
Chorus Fill x 1
Chorus x 1
Verse x 2
Chorus x 2
Chorus Fill x 1
Chorus x 1
Verse x 3
Chorus x 2
Chorus Fill x 1
Chorus x 1
Solo x 3
Solo Outro x 1
Verse x 2
Chorus x 4
Chorus Fill x 1
Chorus x 1
Solo x 3
Solo Outro x 1
Solo x 3
Solo Outro x 1
Related for Born Of A Broken Man tab