Rage Against The Machine - Bullet In Your Head tab

verse
e-------------------------------------------------------------------------|
B-------------------------------------------------------------------------|
G--5---5---5---5---5---5~~------------------------------------------------|x4
D--5---5---5---5---5---5~~------------------------------------------------|
A-------------------------------------------------------------------------|
E-------------------------------------------------------------------------|
chorus
e-------------------------------------------------------------------------|
B-------------------------------------------------------------------------|
G-------------------------------------------------------------------------|x2
D-------------------------------------------------------------------------|
A---------0-----2-------0-------------------------------------------------|
E-0---3-------------3-------0---0~~---------------------------------------|
solo
e--12---0---0---10---0---0---8---0---0---6---0---0---5---0---4---0---3---0-|
 ---0---0---0---0---0---0--------------------------------------------------|
B--------------------------------------------------------------------------|x2
G--------------------------------------------------------------------------|
D--------------------------------------------------------------------------|
A--------------------------------------------------------------------------|
E--------------------------------------------------------------------------|

e---15-------------14-------------13-------------11-----------------------|
B--------14-------------13-------------12-------------10------------------|
G-------------13-------------12-------------11-------------9--------------|x2
D-------------------------------------------------------------------------|
E-------------------------------------------------------------------------|
A-------------------------------------------------------------------------|
E-------------------------------------------------------------------------|

e---12---12---12------------------------12---12---15b---------------------|
B---15b--15b--15b---15---12-------------15b--15b--------------------------|
G-----------------------------14---12-------------------------------------|
D-------------------------------------------------------------------------|
A-------------------------------------------------------------------------|
E-------------------------------------------------------------------------|
chorus x2
verse x4
the killer main riff
e-------------------------------------------------------------------------|
B-------------------------------------------------------------------------|
G-------------------------------------------------------------------------|
D-------------------------------------------------------------------------|
A---7---7---7---7---7---7---7---7---5-------------------------------------|
E---------------------------------------5---6---5---0---3---5---3---0---0-|
 ---0---------------------------------------------------------------------|
That's it for now.Please rate song exellent!
Tap to rate this tab
 
# A B C D E F G H I J K L M N O P Q R S T U V W X Y Z