Rage Against The Machine - Maggies Farm tab

‘MAGGIE’S FARM’ by RAGE AGAINST THE MACHINE
Appears on the Album ‘Renegades’ (Epic) released in 2000

Words by B. Dylan

Tabbed by: DWalsh123          Tuning: Dropped B (E String only)

These are my corrections to all other previous Maggies Farm tabs. There are
 some subtle differences here that an experienced guitar player with an ear
 should notice. If you wanna play the song correctly, this is the tab!

Intro:                                                       Dist Here!
e|--12-----12-----12------12-----10-----10-----10-----10-|--|-----|
b|------12-----12-----12------12-----12-----12----12-----|x2|-----|
G|-------------------------------------------------------|--|-----|
D|-------------------------------------------------------|--|-----|
A|-------------------------------------------------------|--|-----|
B|-------------------------------------------------------|--|-0//-|
On the second time vibrato the 10

Main Riff: 
e|-------------------------------------------------------------------|
b|-------------------------------------------------------------------|
G|-------------------------------------------------------------------|
D|-----------------------------------------------0-------------------|
A|-------------------------------------------0-2---2-0---------------|
B|--0-0-3p0-0-0-----0-3p0-X5b---0-0--3p0-0-0--------------5-3--------|

The way she makes you scrub the floors
e|--------------------------------|
b|--------------------------------|
G|-----7~~------4~~---------------|
D|-----7~~------2~~---------------|
A|-----0--------2~~---------------|
B|-0-0------0-0-------------------|

Gonna work for Maggie’s brother
e|------------------------------------------------------------------|
b|------------------------------------------------------------------|
G|------------------------------------------------------------------|
D|------------------------------------------------------------------| X4
A|------------------------------------------------------------------|
B|---0-0-XX-0-XX-0-XXXX---------------------------------------------|

He Fines you…
e|------------------------------------------------------------------|
b|------------------------------------------------------------------|
G|---7-7-7-7-7--4-4-4-4-4-------------------------------------------|
D|---7-7-7-7-7--2-2-2-2-2-------------------------------------------|
A|---0-0-0-0-0--2-2-2-2-2-------------------------------------------|
B|-------------------------0-(last time let ring)-------------------|

Reverse bend you hear (Start with the bend already made and strike the note
 while slowing returning to the original position and tremolo)
e|----------------------------------------------|
b|-----------11rb9~~----------------------------|
G|------------7---------------------------------|
D|----------------------------------------------|
A|----------------------------------------------|
B|----------------------------------------------|

SOLO:
If you wanna play something half close you'll need a second guitarist 
playing 16th notes on the b-12 through out. If you don't have a pitch 
shifter, try this!
E|---------------------------------------------|
B|---12~---------------------------------------|
G|------11~------------------------------------|
D|---------12~\--------------------------------|
A|---------------------------------------------|
B|---------------------------------------------|X4

E|-----------------------------------17-------|
B|--------------------------------------------|
G|--12b14r12-12b14r12-12b14rb12b14r12--12-----|
D|--------------------------------------------|
A|--------------------------------------------|
B|--------------------------------------------|X2
The second time around you can hear that Tom does not go to the high 17 but
 just keeps on with the 12-14 bend


After the repeat of the intro
E|--12------12------12-------------10------10------10-------------|
B|------12------12---------------------12------12-----------------|
G|----------------------------------------------------------------|
D|----------------------------------------------------------------|
A|----------------------------------------------------------------|
B|----------------------X-5----------------------------X-5--------|

Outro
e|-------------------------------------------------------------------|
b|-------------------------------------------------------------------|
G|-------------------------------------------------------------------|
D|-----------------------------------------------0-------------------|
A|-------------------------------------------0-2---2-0---------------|
B|--0-0-3p0--0-0----0-3p0-X5b---0-0--3p0-0-0-------------5-3----------|X6

e|-------------------------------------------------------------------|
b|-------------------------------------------------------------------|
G|-------------------------------------------------------------------|
D|-------------------------------------------------------------------|
A|-------------------------------------------0-----------------------|
B|--0-0-3p0-0-0-----0-3p0-X5b---0-0--3p0-0-0---3---------------------|

You hear the reverse bend which is tabbed above, as well as the solo which
 is also tabbed above. There is one new part which is simple:

e|-------------------------------------------------------------------|
b|-------------------------------------------------------------------|
G|--14b16r14-14b16-14-14-14-14-14-14---------------------------------|
D|-------------------------------------------------------------------|
A|-------------------------------------------------------------------|
B|-------------------------------------------------------------------|

The song ends with these two reverse bends together.
e|-----------------------|
b|-----------------------|
G|-------16rb14----------|
D|-----------------------|
A|-----------------------|
B|-----------------------|
            &
e|-----------------------|
b|--------7--------------|
G|-------11rb9-----------|
D|-----------------------|
A|-----------------------|
B|-----------------------|

Now just put it all together, you have the pieces.
Hope you like it, and please rate it high. More great tabs to come
-DWalsh123
Tap to rate this tab
 
# A B C D E F G H I J K L M N O P Q R S T U V W X Y Z