Song name
# A B C D E F G H I J K L M N O P Q R S T U V W X Y Z

Rage Against The Machine - Voice Of The Voiceless tab

Tuning: Drop D (DADGBE)

Intro and Verse (This may be a bit off, because Tom actually uses feedback and one of 
the knobs on his whammy pedal for this effect but this is a way to try to replicate the 
sound if you don't have these at your disposal.)

()=Natural Harmonic

e|-------------10-12-13--12h13p12/10-----------------------------------------|
B|---------------------------------------------------------------------------|
G|-(12)Let Ring--------------------------------------------------------------|
D|---------------------------------------------------------------------------|
A|---------------------------------------------------------------------------|
D|---------------------------------------------------------------------------|

e|-------------13-12-10---8h10p8/7------7h8p7/3------------------------------|
B|---------------------------------------------------------------------------|
G|-(12)Let Ring--------------------------------------------------------------|
D|---------------------------------------------------------------------------|
A|---------------------------------------------------------------------------|
D|---------------------------------------------------------------------------|

Main Riff
e|---------------------------------------------------------------------------|
B|---------------------------------------------------------------------------|
G|---------------------------------------------------------------------------|
D|-----3-------------------3-------5-3----(repeatx4)-------------------------|
A|-3-5---5-3-5-3h5-5---3-5---5-3-5-----5-------------------------------------|
D|---------------------------------------------------------------------------|

e|---------------------------------------------------------------------------|
B|---------------------------------------------------------------------------|
G|---------------------------------------------------------------------------|
D|---------------------------------------------------------------------------|
A|-5-3-5--3-0-3--------------------------------------------------------------|
D|---------------5-3-5--3-0-3-5----------------------------------------------|

That's what I was able to come up with. Hope it's helpful.
Tap to rate this tab
 
# A B C D E F G H I J K L M N O P Q R S T U V W X Y Z