Rage Against The Machine - War Within A Breath tab

-----------------------------------------------------------------------------
	       WAR WITHIN A BREATH - RAGE AGAINST THE MACHINE
-----------------------------------------------------------------------------
Tabbed by: JoshDropD
Email: josh.defibaugh.g@gmail.com

Every tab I have seen for the is song is written in/for Drop D.  But When you 
actually listen to the and I play along, I don't think it matches.  so this is a 
very strange tuning, but it's C#ADGbe, yes, weird.  Just down tune your lowest E 
so your 4th fret on the A string is in an octave (C#).  There is no sense in down 
tuning your guitar if you really only need to do so for one string.

e |-----------------|
B |-----------------|
G |-----------------|
D |-6--11-----------|
A |-4---------------|
C#|-0----10h12p10---| x12.  

e |---------------------------------------------------------|
B |---------------------------------------------------------|
G |-----13---13-------12----12-----11---11------10----10----|
D |--11----11--11-11-----11--11-11----11--11-11----11-------|
A |---------------------------------------------------------|
C#|---------------------------------------------------------| x2

e |-------------------|
B |-------------------|
G |-------------------|
D |-------------------|
A |-4--------2--4-----|
C#|-0--3--5--------3--| x8 

e |-----------------|
B |-----------------|
G |-----------------|
D |-6--11-----------|
A |-4---------------|
C#|-0----10h12p10---| x12

e |---------------------------------------------------------|
B |---------------------------------------------------------|
G |-----13---13-------12----12-----11---11------10----10----|
D |--11----11--11-11-----11--11-11----11--11-11----11-------|
A |---------------------------------------------------------|
C#|---------------------------------------------------------| x2

    1 & 2 & 2 & 2 & 3 & 2 & 4 & 2 &
e |-x-x-x-x-x-x-x-x-x-x-x-x-x-x-x-x-|  Just put your hand over the all the 
B |-x-x-x-x-x-x-x-x-x-x-x-x-x-x-x-x-|  strings and strum.  The numbers and 
G |-x-x-x-x-x-x-x-x-x-x-x-x-x-x-x-x-|  &'s are used for timing. 
D |-x-x-x-x-x-x-x-x-x-x-x-x-x-x-x-x-|
A |-x-x-x-x-x-x-x-x-x-x-x-x-x-x-x-x-|
C#|-x-x-x-x-x-x-x-x-x-x-x-x-x-x-x-x-| x2 

e |-------------------|
B |-------------------|
G |-------------------|
D |-------------------|
A |-4--------2--4-----|
C#|-0--3--5--------3--| x7

e |---------------------|
B |---------------------|
G |-------------------6-|
D |-------------------6-|
A |-4--------2--4-----4-|
C#|-0--3--5--------3--0-|

   2:22
e |---------------------------|
B |---------------------------|
G |--2-2--2/4-4--4/6--6-2/4-2-|
D |--0-0--0-0-0--0-0--0-0-0-0-|
A |--0-0--0-0-0--0-0--0-0-0-0-|
C#|--0-0--0-0-0--0-0--0-0-0-0-|

  Solo 2:32
e |-------------------|
B |-------------------|
G |-------------------|
D |-------------------|
A |----------2--4-----|
C#|-0--3--5--------3--| x4


e |--------------------|
B |--------------------|
G |--------------------|
D |--------------------|
A |-4--------2--4------|
C#|-0--3--5--------3---| x8


At 3:02 Tom Morello uses his octave pedal with (I think) the following chord
e |-16---16----|
B |-14---14----|
G |-13---13----|
D |-11---11----|
A |------------|
C#|------------| x4


End chord 
e |-----|
B |-----|
G |-6---|
D |-6---|
A |-4---|
C#|-0---|
Tap to rate this tab
 
# A B C D E F G H I J K L M N O P Q R S T U V W X Y Z