Song name
# A B C D E F G H I J K L M N O P Q R S T U V W X Y Z

Rage Against The Machine - Calm Like A Bomb tab

----------------------------------------------------------------------------
			    RAGE AGAINST THE MACHINE - CALM LIKE A BOMB
----------------------------------------------------------------------------
Tabbed by:Tom_Morello_jr
Email:

Tuning: Drop D  (D A D G B e)

In this song Tom use a Whammy pedal set 2 octaves up and a delay pedal for the solo

WHAMMY PEDAL:

+  close whammy
*  open whammy
>  gradually open whammy
<  gradually release whammy

DELAY PEDAL:

5% feedback
40 or 50 level
about 40~45 ms

Riff #1  (Intro and verses)  --Using killswitch and whammy--

   >>>>>>>>>>>>>>>>>>>>>>>>>>>>>>>>>>>>>>>>>>
|----------------------------------------------|
|--12------------12-----------12-----------12--|
|----------------------------------------------|
|----------------------------------------------|
|----------------------------------------------|
|----------------------------------------------|

Riff #2  (pre-chorus)

|-------------------------------------|
|-------------------------------------|
|--444444444444444444444444444444444--|
|--xxxxxxxxxxxxxxxxxxxxxxxxxxxxxxxxx--|
|--222222222222222222222222222222222--|
|-------------------------------------|

Riff #3  (chorus)  [this riff should be played on the A string, but i prefer
                    doing it on the D string]

|------------------------------------------------|
|------------------------------------------------|
|------------------------------------------------|
|--------xxxxxxxxxxxxxxxx------------------------|
|--7h9---xxxxxxxxxxxxxxxx--7h9--7h9--9--9--9h12--|
|--7h9---xxxxxxxxxxxxxxxx--7h9--7h9--9--9--9h12--|

second part of the chorus

|-------------------------------------------------|
|-------------------------------------------------|
|-------------------------------------------------|
|-------------------------------------------------|
|--7h9--9h12h9--xxx--12-9---7h9--9h12h9--7--12-9--|
|--7h9--9h12h9--xxx--12-9---7h9--9h12h9--7--12-9--|

Solo part 1  --killswitch--

|-----------------------------------------|
|--12-0000-12-0000-12-0000-12-0000--------|
|----------------------------------12-12--|
|-----------------------------------------|
|-----------------------------------------|
|-----------------------------------------|

Solo part 2  --killswitch and whammy and delay--

             >>>>>>>>>>>+   >>>>>>>>>>>>+  >>>>>>>>>>>>+  >>>>>>>>>>>>>+
|-------------------------------------------------------------------------|
|--12--12----12-------------12-------------12-------------12--------------|
|----12--12---------------------------------------------------------------|
|-------------------------------------------------------------------------|
|-------------------------------------------------------------------------|
|-------------------------------------------------------------------------|

Solo part 3  --killswitch and whammy and delay--

   *<<<<<            *<<<<<            *<<<<<            *<<<<<
|--14----------------14----------------14----------------14---------------|
|-------------------------------------------------------------------------|
|---------14--14------------14--14------------14--14------------14--14----|
|-----------16--16------------16--16------------16--16------------16--16--|
|-------------------------------------------------------------------------|
|-------------------------------------------------------------------------|



 /  slide up
 \  slide down
 h  hammer-on
 p  pull-off
 ~  vibrato
 +  harmonic
 x  Mute note
============================================================================
Tap to rate this tab
# A B C D E F G H I J K L M N O P Q R S T U V W X Y Z