Song name
# A B C D E F G H I J K L M N O P Q R S T U V W X Y Z

Rage Against The Machine - No Shelter tab

----------------------------------------------------------------------------
		    No Shelter - Rage Against The Machine
----------------------------------------------------------------------------
Tabbed by:BADHACKER
Email:d_malakian_69@hotmail.com

Note: For those who haven't studied Tom Morello's style of playing, he uses in this song
Mexican Fender Telecaster, playing through the bridge pickup with low distorsion,
Amplifier distortion. The mid frequencies from the amp's equilizer are semi-scooped so 
can achieve almost the same sound that he has.

Tuning:EBGDAD

Intro:
e|------------------------xxxxxxxxxxxxx------------------------xxxxxxxxxxxxx-|
B|------------------------xxxxxxxxxxxxx------------------------xxxxxxxxxxxxx-|
G|------------------------xxxxxxxxxxxxx------------------------xxxxxxxxxxxxx-|
D|-10--10---10---10--7----xxxxxxxxxxxxx---10--10--10---10--7---xxxxxxxxxxxxx-|
A|-10--8----8----10--5----xxxxxxxxxxxxx---10--8---8----10--5---xxxxxxxxxxxxx-|
D|-10------------10-------xxxxxxxxxxxxx---10-----------10------xxxxxxxxxxxxx-|

e|------------------------xxxxxxxxxxxxx------------------------xxxxxxxxxxxxx-|
B|------------------------xxxxxxxxxxxxx------------------------xxxxxxxxxxxxx-|
G|------------------------xxxxxxxxxxxxx------------------------xxxxxxxxxxxxx-|
D|-10--10---10---10--7----xxxxxxxxxxxxx---10--10--10---10--7---xxxxxxxxxxxxx-|
A|-10--8----8----10--5----xxxxxxxxxxxxx---10--8---8----10--5---xxxxxxxxxxxxx-|
D|-10------------10-------xxxxxxxxxxxxx---10-----------10------xxxxxxxxxxxxx-|

Verse:

w/wah wah pedal, rock it back and forward in the same rythm and a slight palm muting

e|--------------------------------------------------------------------------|
B|--------------------------------------------------------------------------|
G|--------------------------------------------------------------------------|
D|--3-------------------3---------------------------------------------------|
A|----5---5-3-5-3-5-3-----5---5-3-5-3-5-3--------8 times--------------------|
D|--------------------------------------------------------------------------|

Chorus:

The same as the intro, only with more Rage!!! xD

e|------------------------xxxxxxxxxxxxx------------------------xxxxxxxxxxxxx-|
B|------------------------xxxxxxxxxxxxx------------------------xxxxxxxxxxxxx-|
G|------------------------xxxxxxxxxxxxx------------------------xxxxxxxxxxxxx-|
D|-10--10---10---10--7----xxxxxxxxxxxxx---10--10--10---10--7---xxxxxxxxxxxxx-|
A|-10--8----8----10--5----xxxxxxxxxxxxx---10--8---8----10--5---xxxxxxxxxxxxx-|
D|-10------------10-------xxxxxxxxxxxxx---10-----------10------xxxxxxxxxxxxx-|

e|------------------------xxxxxxxxxxxxx------------------------xxxxxxxxxxxxx-|
B|------------------------xxxxxxxxxxxxx------------------------xxxxxxxxxxxxx-|
G|------------------------xxxxxxxxxxxxx------------------------xxxxxxxxxxxxx-|
D|-10--10---10---10--7----xxxxxxxxxxxxx---10--10--10---10--7---xxxxxxxxxxxxx-|
A|-10--8----8----10--5----xxxxxxxxxxxxx---10--8---8----10--5---xxxxxxxxxxxxx-|
D|-10------------10-------xxxxxxxxxxxxx---10-----------10------xxxxxxxxxxxxx-|

Slight Break:

Here is a little bass solo by Tim Commenford, here is my transcription for guitar:

e|--------------------------------------------------------------------------|
B|--------------------------------------------------------------------------|
G|--------------------------------------------------------------------------|
D|-----------------333------------------------------------------------------|
A|------3333----------555-333-555-------------------------------------------|
D|--0000----3333-000------------3333-5555-----------------------------------|

Verse:

The same as verse 1

e|--------------------------------------------------------------------------|
B|--------------------------------------------------------------------------|
G|--------------------------------------------------------------------------|
D|--3-------------------3---------------------------------------------------|
A|----5---5-3-5-3-5-3-----5---5-3-5-3-5-3--------8 times--------------------|
D|--------------------------------------------------------------------------|

Chorus:

e|------------------------xxxxxxxxxxxxx------------------------xxxxxxxxxxxxx-|
B|------------------------xxxxxxxxxxxxx------------------------xxxxxxxxxxxxx-|
G|------------------------xxxxxxxxxxxxx------------------------xxxxxxxxxxxxx-|
D|-10--10---10---10--7----xxxxxxxxxxxxx---10--10--10---10--7---xxxxxxxxxxxxx-|
A|-10--8----8----10--5----xxxxxxxxxxxxx---10--8---8----10--5---xxxxxxxxxxxxx-|
D|-10------------10-------xxxxxxxxxxxxx---10-----------10------xxxxxxxxxxxxx-|

e|------------------------xxxxxxxxxxxxx------------------------xxxxxxxxxxxxx-|
B|------------------------xxxxxxxxxxxxx------------------------xxxxxxxxxxxxx-|
G|------------------------xxxxxxxxxxxxx------------------------xxxxxxxxxxxxx-|
D|-10--10---10---10--7----xxxxxxxxxxxxx---10--10--10---10--7---xxxxxxxxxxxxx-|
A|-10--8----8----10--5----xxxxxxxxxxxxx---10--8---8----10--5---xxxxxxxxxxxxx-|
D|-10------------10-------xxxxxxxxxxxxx---10-----------10------xxxxxxxxxxxxx-|

Bridge leading To Solo:

Now is the part of: "American eyes, American eyes, view the world with american eyes", 
at 2:44 minutes play the following:

e|----16v-----16v----16v----16v-----16v-----16v---------------------------------|
B|------------------------------------------------------------------------------|
G|------------------------------------------------------------------------------|
D|--------------------------------------------------------------------------A|--|
D|------------------------------------------------------------------------------|

Then at 2:54 minutes ther is!!!::

Solo:

w/wah wah, each time rock the pedal forward and accentuate each note

+ Toe down
o Toe up
    +   o +      +   o +      +   o +    o+ o+ o+ o+    o+
e|--16----16-----16----16-----16----16---16-16-16-16----16-16---------------|
B|--16----16-----16----16-----16----16---16-16-16-16----16-16---------------|
G|--------------------------------------------------------------------------|
D|--------------------------------------------------------------------------|
A|--------------------------------------------------------------------------|
D|--------------------------------------------------------------------------|

 +   o +      +   o +      +   o +    o+ o+ o+ o+    o+
e|--16----16-----16----16-----16----16---16-16-16-16----16-16---------------|
B|--16----16-----16----16-----16----16---16-16-16-16----16-16---------------|
G|--------------------------------------------------------------------------|
D|--------------------------------------------------------------------------|
A|--------------------------------------------------------------------------|
D|--------------------------------------------------------------------------|

   o+  o+  o+  o+      o+  o+  o+  o+    o+  o+  o+  o+     o+  o+  o+  o+
e|-17--16--15--14------17--16--15--14----17--16--15--14-----17--17--17--17--|
B|-17--16--15--14------17--16--15--14----17--16--15--14-----17--17--17--17--|
G|--------------------------------------------------------------------------|
D|--------------------------------------------------------------------------|
A|--------------------------------------------------------------------------|
D|--------------------------------------------------------------------------|

Breakdown:

This part is the same one as the part for the bass in the first bass solo

e|--------------------------------------------------------------------------------------------------------|
B|--------------------------------------------------------------------------------------------------------|
G|--------------------------------------------------------------------------------------------------------|
D|----------------3------------------------7 times--------------------------A|------3------------5--3--5--|
D|---0----3b---0--------------3---5b---0------------------------------------------------------------------|


e|--------------------------------------------------------------------------------------------------------|
B|--------------------------------------------------------------------------------------------------------|
G|--------------------------------------------------------------------------------------------------------|
D|----------------3---------------------------------------------------------A|------3------------5--3--5--|
D|---0----3b---0--------------3---5b---0(let ring)--------------------------------------------------------|

The End

b: Bend
v: Vibrato

Any questions? e-mail me at d_malakian_69@hotmail.com, good bye and have a great time 
this song!!
Tap to rate this tab
 
# A B C D E F G H I J K L M N O P Q R S T U V W X Y Z