Song name
# A B C D E F G H I J K L M N O P Q R S T U V W X Y Z

Rage Against The Machine - How I Could Just Kill A Man tab

Song: How I Could Just Kill A Man
Band: Rage Against The Machine
Tabbed by: J.Dawg
Tuning: Drop D


I saw the music video for this & I listend to it a couple of times.
For the intro & verse`s & chorus`s use a DigiTech whammy & set it on the harmony 
setting 1 oct v, 1 oct ^.(1 octave down, 1 octave up.) 
Also for the intro and verse`s flip the toggle switch like your doing killswitch. 
Also Use a Wah in the intro and verse`s.




Intro:   X4                         Whammy in
e|----------------------------------------------------------------------------------|
b|----------------------------------------------------------------------------------|
g|----------------------------------------------------------------------------------|
d|----------------------------------------------------------------------------------|
a|----------------------------------------------------------------------------------|
d|-h10-h12-h10-h12---h10-h12--h12-h10-h15---h10-h12-h10-h12---h10-h12-h12-h10-h12---|
   o+  o+  o+  o+    o+  o+   o+  o+  o+    o+  o+  o+  o+    o+  o+  o+  o+  o+





Chorus 1:   X3    Whammy out           Chorus Outro:  X1              
e|-----------------------------------||---------------------------|
b|-----------------------------------||---------------------------|
g|-----------------------------------||---------------------------|
d|---3-------------------------3h5-3-||---3-----------------------|
a|--------------3-0-0-0-0-0-xx-------||--------------3-0-0-0-0-0--|
d|-0---0-3--/5----0-0-0-0-0-xx-------||-0---0-3--/5----0-0-0-0-0--|
                          |-pm-|     





Verse 1:   X2                       Whammy in
e|----------------------------------------------------------------------------------|
b|----------------------------------------------------------------------------------|
g|----------------------------------------------------------------------------------|
d|----------------------------------------------------------------------------------|
a|----------------------------------------------------------------------------------|
d|-h10-h12-h10-h12---h10-h12--h12-h10-h15---h10-h12-h10-h12---h10-h12-h12-h10-h12---|
   o+  o+  o+  o+    o+  o+   o+  o+  o+    o+  o+  o+  o+    o+  o+  o+  o+  o+


 
                                                  X4
            X1     Whammy in                   Whammy out
e|------------------------------------------||------------|
b|------------------------------------------||------------|
g|------------------------------------------||------------|
d|------------------------------------------||------------|
a|------------------------------------------||-0-0-0-0-0--|
d|-h10-h12-h10-h12---h10-h12--h12-h10-h15---||-0-0-0-0-0--|
   o+  o+  o+  o+    o+  o+   o+  o+  o+



                                            
                                                  X1
            X1   Whammy in                     Whammy out
e|------------------------------------------||------------|
b|------------------------------------------||------------|
g|------------------------------------------||------------|
d|------------------------------------------||------------|
a|------------------------------------------||-0-0-0-0-0--|
d|-h10-h12-h10-h12---h10-h12--h12-h10-h15---||-0-0-0-0-0--|
   o+  o+  o+  o+    o+  o+   o+  o+  o+        





Chorus 2:    X3    Whammy out         Chorus 2 Outro:  X1    
e|-----------------------------------||---------------------------|
b|-----------------------------------||---------------------------|
g|-----------------------------------||---------------------------|
d|---3-------------------------3h5-3-||---3-----------------------|
a|--------------3-0-0-0-0-0-xx-------||--------------3-0-0-0-0-0--|
d|-0---0-3--/5----0-0-0-0-0-xx-------||-0---0-3--/5----0-0-0-0-0--|
                          |-pm-|





Interlude:     X8                 X4 
       Whammy out             Whammy out
e|-------------------------||------------|
b|-------------------------||------------|
g|-------------------------||------------|
d|-------------------------||------------|
a|--------0--------0-------||-0-0-0-0-0--|
d|--9h11----9h11-----9h11--||-0-0-0-0-0--|





Verse 2:     X3         Whammy in
e|----------------------------------------------------------------------------------|
b|----------------------------------------------------------------------------------|
g|----------------------------------------------------------------------------------|
d|----------------------------------------------------------------------------------|
a|----------------------------------------------------------------------------------|
d|-h10-h12-h10-h12---h10-h12--h12-h10-h15---h10-h12-h10-h12---h10-h12-h12-h10-h12---|
   o+  o+  o+  o+    o+  o+   o+  o+  o+    o+  o+  o+  o+    o+  o+  o+  o+  o+



                             X1
e|----------------------------------------------------------------------|
b|----------------------------------------------------------------------|
g|----------------------------------------------------------------------|
d|----------------------------------------------------------------------|
a|----------------------------------------------------------------------|
d|-h10-h12-h10-h12---h10-h12--h12-h10-h15---h10-h12-h10-h12---h10-h12---|
   o+  o+  o+  o+    o+  o+   o+  o+  o+    o+  o+  o+  o+    o+  o+





Chorus 3:    X7          Whammy out    Chorus 3 Outro: X1
e|-----------------------------------||---------------------------|
b|-----------------------------------||---------------------------|
g|-----------------------------------||---------------------------|
d|---3-------------------------3h5-3-||---3-----------------------|
a|--------------3-0-0-0-0-0-xx-------||--------------3-0-0-0-0-0--|
e|-0---0-3--/5----0-0-0-0-0-xx-------||-0---0-3--/5----0-0-0-0-0--|
                          |-pm-|





Outro:  X4  Whammy out
e|------------|
b|------------|
g|------------|
d|------------|
a|-0-0-0-0-0--|
d|-0-0-0-0-0--|


That is it! Enjoy!

|---------------------|
| Guitar Key:         |
|                     |
| /= Slide up         |
| pm= Palm mute       |                       
| h= Hammer on        |                       
| o= Wah up(toe up)   |
| += Wah down(toe in) |
|---------------------|
Tap to rate this tab
 
# A B C D E F G H I J K L M N O P Q R S T U V W X Y Z