Song name
# A B C D E F G H I J K L M N O P Q R S T U V W X Y Z

Rage Against The Machine - How I Could Just Kill A Man tab

Intro/Verse
 Use a whammy pedal and flip your toggle switch back & forth.
|-------------------------------------------------------------------------|
|-------------------------------------------------------------------------|
|-------------------------------------------------------------------------|
|h10-h12-h10-h12--h10-h12--h12-h10-h15-h10-h12-h10-h12-h10-h12-h12-h10-h12|
|-------------------------------------------------------------------------|
|-------------------------------------------------------------------------|

Interlude
|----------------------------------|
|----------------------------------|
|----------------------------------|          Repeat until Chorus or bridge
|----------------------------------|
|-0-0-0-0-0------------------------|
|-0-0-0-0-0------------------------|


Chorus
|----------------------------------|
|----------------------------------|
|----------------------------------|
|----------------------------------|
|--5-8-5-3-5-8--0-0-0-0-0-xx-3h5p3-|
|---------------0-0-0-0-0-xx-------|


Bridge
|----------------------------------|     |-------------------------------|
|----------------------------------|     |-------------------------------|
|--13/15--13/15--------------------|     |--13/15--13/15-----------------|
|------------------12/15-----------|  Or |----------------13-13/15-------|
|----------------------------------|     |-------------------------------|
|----------------------------------|     |-------------------------------|
Tap to rate this tab
 
# A B C D E F G H I J K L M N O P Q R S T U V W X Y Z