Rage Against The Machine - Maggies Farm tab

I promise this intro is right lots of fucking idiots on this site--

‘MAGGIE’S FARM’ by RAGE AGAINST THE MACHINE
Appears on the Album ‘Renegades’ (Epic) released in 2000

Words by B. Dylan

Tabbed by: J. Scholefield                                   Tuning: Dropped B

I like distortion/clean on this either sounds good (on the 2nd time hold the 13 and
vibrato then slide into open B

e|--15-----15-----15------15-----13-----13-----13-----13-|--|-----| X2
b|------15-----15-----15------15-----15-----15----15-----|--|-----|
G|-------------------------------------------------------|--|-----|
D|-------------------------------------------------------|--|-----|
A|-------------------------------------------------------|--|-----|
B|-------------------------------------------------------|--|-0//-|

Main Riff- He uses this throughout most the song
e|-------------------------------------------------------------------| X4
b|-------------------------------------------------------------------|
G|-------------------------------------------------------------------|
D|---------------------------------------------3---------------------|
A|-----------------------------------------3-5---5-3-----------------|
B|--0-0-3p0--0-----0-3p0-5b---0-0--3p0---------------5-0-------------|

Riff 2------------------------------------|(Maggie's farm background riff) palm mute if 
you cant play quiet!
e|----------------------------------------| X4
b|----------------------------------------|
G|----------------------------------------|
D|----------------------------------------|
A|----------------------------------------|
B|--0-0-3p0--0-----0-3p0-5b---0-0--3p0-0--|

Riff 3 -----(Riff 2 is looped 4 times under this one--| Play Riff 3 every other time 
over Riff 2)
e|--------------x-------------------------------------|  X2
b|--------------3-------------------------------------|
G|-----5~~------4~~-----------------------------------|
D|-----5~~------5~~-----------------------------------|
A|-----3~~------x~~-----------------------------------|
B|-0-0------0-0-x-------------------------------------|

Riff 4 ---Maggie’s brother
e|----------------------------------------| X4
b|----------------------------------------|
G|----------------------------------------|
D|----------------------------------------|
A|----------------------------------------|
B|---0-0-x-x-0-x-x-0-xxxx-----------------|

Riff 5 (riff 2 without the ending)
e|----------------------------| X4
b|----------------------------|
G|----------------------------|
D|----------------------------|
A|----------------------------|
B|--0-0-3p0--0-----0-3p0-5b---|

Riff 6

e|-------------------xxxxxxxx---------------|
b|-------------------33333333---------------|
G|-----55555555------44444444---------------|
D|-----55555555------55555555---------------|
A|-----33333333------xxxxxxxx---------------|
B|------------------------------------------|

Riff 4

Riff 6

Main Riff
e|-------------------------------------------------------------------| X2
b|-------------------------------------------------------------------|
G|-------------------------------------------------------------------|
D|---------------------------------------------3---------------------|
A|-----------------------------------------3-5---5-3-----------------|
B|--0-0-3p0--0-----0-3p0-5b---0-0--3p0---------------5-0-------------|

Riff 2------------------------------------|(Maggie's farm background riff) palm mute if 
you cant play quiet!
e|----------------------------------------| X4
b|----------------------------------------|
G|----------------------------------------|
D|----------------------------------------|
A|----------------------------------------|
B|--0-0-3p0--0-----0-3p0-5b---0-0--3p0-0--|

Riff 3 -----(Riff 2 is looped 4 times under this one--| Play Riff 3 every other time 
over Riff 2)
e|--------------x-------------------------------------|  X2
b|--------------3-------------------------------------|
G|-----5~~------4~~-----------------------------------|
D|-----5~~------5~~-----------------------------------|
A|-----3~~------x~~-----------------------------------|
B|-0-0------0-0-x-------------------------------------|

The rest is basically a repeat of all of those HAVE FUN!!
Tap to rate this tab
 
# A B C D E F G H I J K L M N O P Q R S T U V W X Y Z