Guitaretab - guitar tabs
Song name
# A B C D E F G H I J K L M N O P Q R S T U V W X Y Z

Rage Against The Machine - New Millenium Homes tab

             Song: New Millenium Homes
             Artist: Rage Against The Machine

        Note: I didnt use a wah-wah in this.
              
              ~ = vibrato
              h = hammer on
              p = pull off
              \ = slide down
              ^ = bend


Intro
e---------------------------------|
B-5~~~~~~~~~~~~-------------------|
G---------------------------------|
D--------------------6------------|
A-----------------7--4--6---------|
E-----------------5-----4---------|

e--------------------------------------|
B--------------------------------------| play this 6x
G--------------------------------------|
D--------------------------------------|
A-8-8--5h7-0--5--3---------------------|
E-6-6---------5--3---------------------|

e--------------------------------------|
B--------------------------------------|
G--------------------------------------|
D-------------5---6------------2-------|let the power chord ring
A-8-8--5h7-0----7---7---5\7----2-------|
E-6-6--------------------------0-------|


Verse
e--------------------------------------|
B---2-2-2--2--2-2----2-2-2--2--2-2-----|play this 8x
G---2-2-2--2--2-2----2-2-2--2--2-2-----|
D-2----------------2-------------------|
A--------------------------------------|
E--------------------------------------|

Pre-Chorus
e--------------------------------------|
B--------------------------------------|play this 8x
G--------------------------3^----------|
D--------4-4-4-------------------------|
A-3-3-3--2-2-2--3-3-3------------------|
E-1-1-1---------1-1-1------------------|

Chorus
e--------------------------------------|
B--------------------------------------|play this 7x
G--------------------------------------|
D---6----------------------------------|
A-7-4-6--8-8--5h7--0-------------------|
E-5---4--6-6---------------------------|

e--------------------------------------|
B--------------------------------------|
G--------------------------------------|
D-------------5---6----------2---------|
A-8-8--5h7--0---7---7--5\7---2---------| let the power chord ring
E-6-6------------------------0---------|
[ Tab from: http://www.guitaretab.com/r/rage-against-the-machine/43179.html ]
Verse
e--------------------------------------|
B---2-2-2--2--2-2----2-2-2--2--2-2-----|play this 8x
G---2-2-2--2--2-2----2-2-2--2--2-2-----|
D-2----------------2-------------------|
A--------------------------------------|
E--------------------------------------|

Pre-Chorus
e--------------------------------------|
B--------------------------------------|play this 8x
G--------------------------3^----------|
D--------4-4-4-------------------------|
A-3-3-3--2-2-2--3-3-3------------------|
E-1-1-1---------1-1-1------------------|

Solo *another solo is played under this*
E--------------------------------------|
B--------------------------------------|
G--------------------------------------| PLAY THIS 4X
D------6-------------------------------|
A---7--4--6----8-8---5H7---0-----------|
E---5-----4----6-6---------------------|

E---------------------------------------|
B---------------------------------------|
G---------------------------------------| PLAY THIS 3X
D------6^-------------------------------|
A---7--4^--6----8-8----5H7---0----------|
E---5------4----6-6---------------------|

E---------------------------------------|
B---------------------------------------|
G---------------------------------------| 
D------6--------------------------------|
A---7--4--6----8-8---5H7---0------------|
E---5-----4----6-6----------------------|

E---------------------------------------|
B---------------------------------------|
G-------------------------5^------------|
D------6--------------------------------|
A---7--4--6---6P4H6P4-------------------|
E---5-----4-----------------------------|

Outro
E---------------------------------------|
B---------------------------------------|play this 7x
G---------------------------------------|
D------6--------------------------------|
A---7--4--6----8--8---7H5----0----------|
E---5-----4----6--6---------------------|

E-----------------------------------------|
B-----------------------------------------|
G-----------------------------------------|
D---------------5--6------------2---------|
A--8-8---5H7--0---7--7---5\7----2---------|LET THE CHORD RING
E--6-6--------------------------0---------|

tell me what you think.
Related for New Millenium Homes tab
Advertisement will be closed in 10 seconds