Song name
# A B C D E F G H I J K L M N O P Q R S T U V W X Y Z

Rage Against The Machine - Pistol Grip Pump tab

                Okay, this is my first tab and i didnt use a wah wah.

STANDARD TUNING    ^ = bend note
                   \ = slide note
                   ~ = vibrato


Intro
e-------------------------------|
B-------------------------------|
G-------------------------------|
D-4^5-0-0-0-0-0--4^5-0-0-0-0-0--|
A-------------------------------|
E-------------------------------|


Main Riff
e-------------------------------|
B-------------------------------| play this throughout the song
G-------------------------------|
D-------------------------------|
A-9^-----7----------------------|
E-7^-7-5------------------------|

Solo
e-------------------------------|   Riff A
B-9--12-12----------------------|
G----------13^--10-12^-11-------|  play this 3x
D-------------------------------|
A-------------------------------|
E-------------------------------|

e--------------7-7--0--9-9--0---|  Riff B
B-9--12-12-----0-0--0--0-0--0---|
G----------13--5-5--0--7-7--0---|
D-------------------------------|
A-------------------------------|
E-------------------------------|

e-------------------------------|
B-\5----\5----------------------|
G-\5----\5----------------------|
D-------------------------------|
A-------------------------------|
E-------------------------------|

e-4----------6------------------| Riff C
B-0------6~--0------4-----------|
G-5--4-4-----4---4-5------------| play this 3x
D-------------------------------|
A-------------------------------|
E-------------------------------|

e-------------------------------|
B-9--12-12-----\5--\5-----------|
G----------13--\5--\5-----------|
D-------------------------------|
A-------------------------------|
E-------------------------------|

Outro
e-------------------------------|
B-------------------------------| 
G-------------------------------| play this 8x
D-------------------------------|
A-9^-----7----------------------|
E-7^-7-5------------------------|


e-------------------------------|
B-------------------------------|
G-------------------------------|
D-4^5-0-0-0-0-0--4^5-0-0-0-0-0--|
A-------------------------------|
E-------------------------------|


e-------------------------------|
B-------------------------------| 
G-------------------------------|
D-------------------------------|
A-9^-----7----------------------|
E-7^-7-5------------------------|

  Plz tell me what you think.
Tap to rate this tab
 
# A B C D E F G H I J K L M N O P Q R S T U V W X Y Z