Song name
# A B C D E F G H I J K L M N O P Q R S T U V W X Y Z

Rage Against The Machine - Zapatas Blood tab

----------------------------------------------------------------------------
			    RAGE AGAINST THE MACHINE - ZAPATA'S BLOOD
----------------------------------------------------------------------------
Tabbed by:Tom_Morello_jr
Email:

Tuning: standard  (E A D G B e)

use Delay effect -- 72 ms , 50% feedback , 50 or 60 level --

+  close wah wah
*  open wah wah

Riff #1  --delay--

  + *                          + *
|-----------------22----------------------22--|
|--9--x-x------------------x-x--9-------------|
|--9--x-x------------------x-x--9-------------|
|--9--x-x------------------x-x--9-------------|
|--7--x-x------------------x-x--7-------------|
|---------------------------------------------|

variation  --delay--

  + *
|-----------------22---------------x----------|
|--9--x-x------------------------x------------|
|--9--x-x----------------------x--------------|
|--9--x-x--------------------x----------------|
|--7--x-x------------------x------------------|
|------------------------x--------------------|

Riff #2  --no delay here--

  + * + * + * + * 
|-------------------|
|-------------------|
|-------------------|
|--9---9---9---9----|
|--7---7---7---9----|
|--7---7---7---7----|

Riff #3  (ending)  --delay--

|--12-12--7----12-12--7----12--7--|
|---------------------------------|
|---------------------------------|
|---------------------------------|
|---------------------------------|
|---------------------------------|


 /  slide up
 \  slide down
 h  hammer-on
 p  pull-off
 ~  vibrato
 +  harmonic
 x  Mute note
============================================================================
Tap to rate this tab
 
# A B C D E F G H I J K L M N O P Q R S T U V W X Y Z