Guitaretab - guitar tabs
Song name
# A B C D E F G H I J K L M N O P Q R S T U V W X Y Z

Rage Against The Machine - Im Housin tab

Artist:Rage Against The Machine
Song: I'm Housin'
Album: Renegades

this is my first tab so sorry if it makes little sense.i know its not the ideal way to 
this but personally i think its pretty close


(this intro is bass, but i just tabbed it for guitar)

(all parts with distortion unless otherwise stated)
    (clean sound)
e|-----------------------------------------------------------|
B|-----------------------------------------------------------|
G|-----------------------------------------------------------|
D|-----------------------------------------------------------|
A|----/10--7--6--5-----------------/10--7--6--5--------------|
E|0----------------7--6---35---0-----------------7--6----0--0|

Verse:

w/wah-wah and slight distortion
e|----------------------------|
B|----------------------------|
G|----------------------------|
D|-------5---------------5\---|
A|----7--------7--7-7---------|
E|----------------------------|

this is played right through both verses

Pre-Chorus:
("Coz i'm housin")

e|---------------       e|-----------|
B|---------------       B|-----------|
G|--------------- x2    G|7/9-7/9----| x2
D|---------------       D|7/9-7/9----|
A|5h7--5h7-------       A|5/7-5/7----|
E|--0----0-------       E|--0---0----|

Then:

e|---------------------------|
B|---------------------------|
G|---------------------------| x4
D|-------------------5-------|
A|5h7--5h7--5h7--5-----------|
E|--0----0----0---7----------|

Chorus:
[ Tab from: http://www.guitaretab.com/r/rage-against-the-machine/43183.html ]
e|-----------------------|
B|-----------------------|
G|9-9--------------------| (this riff goes right through the chorus)
D|9-9--------------------|
A|7-7-------5----5-------|
E|-----5-7--------7-5-3--|

Solo:
He uses effects to play this, I think its a whammy pedal.
(I just hav the notes written he actually tremolo picks this)
e|12----10--12------------------|
B|--------------10--12---8--10--|
G|------------------------------|
D|------------------------------|
A|------------------------------|
E|------------------------------|

When Zack comes back in with "Coz I'm housin", this is what it is:

(w/wah and distortion)
e|12---12----12---12----------------------------------------------|
B|12---12----12---12----------------------------------------------|
G|------------------------14b14-12----12b12---------12------------|
D|---------------------------------14-------14-12-14--14-12-14----|
A|----------------------------------------------------------------|
E|----------------------------------------------------------------|

(contd.)
e|12---12----12---12-------15-12-12---15-12-12--12-15-12-15-12----|
B|12---12----12---12---------------15---------15------------------|
G|----------------------------------------------------------------|
D|----------------------------------------------------------------|
A|----------------------------------------------------------------|
E|----------------------------------------------------------------|

thats basically it.leave comments tell me how it is
Related for Im Housin tab
×
Im Housin