Song name
# A B C D E F G H I J K L M N O P Q R S T U V W X Y Z

Rage Against The Machine - Good Morning Vietnam tab

                          rage against the machine
                           good morning vietnam
                       tabbed by dieter oberholster

standard tuning
intro
----------------------------------------------------------|
----------------------------------------------------------|
------------------------------------------------7b--------|
-7-7-5-7---7-7-5-7---7-7-5-7-10-7-5-7---7-7-5-7-7b--------|
-7-7-5-7---7-7-5-7---7-7-5-7-10-7-5-7---7-7-5-7-----------|
-5-5-5-5---5-5-5-5---5-5-5-5-8--5-5-5---5-5-5-5-----------|

riff II
----------------------------------------------------------|
----------------------------------------------------------|
----------------------------------------------------------|
----------------------------------------------------------|
-------------------------------------3-3--5-5--xxxx-------|
-10-8-10-8-10--10-8-10-8-10-13-10-8--1-1--3-3--xxxx-------|

KEWL SONG.. DIETER RULES
Tap to rate this tab
# A B C D E F G H I J K L M N O P Q R S T U V W X Y Z