Song name
# A B C D E F G H I J K L M N O P Q R S T U V W X Y Z

Rage Against The Machine - Kick Out The Jams Live tab

Artist: Rage Against The Machine
Song: Kick Out The Jams (Live)


----------------------------------------------------------------------
           KICK OUT THE JAMS (Live) - RAGE AGAINST THE MACHINE
----------------------------------------------------------------------
Tabbed by:Sinder
Email:spartan130@hotmail.com

Ok people here it is i hope you guys enjoy it.
Feel free to leave comments.
Not gonna say this is perfect but pretty close.

Tuning:Standard

FEED BACK MOLD W/TREMOLO BAR
 
Intro
e|----------------|
B|----------------|
G|--2--2--2--4----|
D|--2--2--2--4----|
A|--0--0--0--2----|
E|----------------|
         Riff 1
e|------|-----------------------------------|
B|------|*---------------------------------*|
G|------|-----------------------------------|
D|------|---------5--7----7--7---7b&r--7----|
A|-5/7--|*--7--7--0--0----0--0---0---------*|
E|------|---0--0----------------------------|X13
 
  Intro W/Fill
e|------------------------------------------------|
B|-------------------------3----------------------|
G|--2--2--2--4----------0--2----------------------|
D|--2--2--2--4----------0--0-------2--------------|
A|--0--0--0--2----------0--0-------2----------12B-|
E|---------------------------------0--------------|
 
  Solo W/ Tremolo
e|------------------------------------------------------------|
B|*-15--------15--------15--------15-------------------------*|
G|--14b---(14)14b---(14)14b---(14)14b---(14)--14--12----------|
D|----------------------------------------------------14--12--|
A|*----------------------------------------------------------*|
E|------------------------------------------------------------|

e|-------------------------------------------------------|
B|*-15--------15--------15--------15--------------------*|
G|--14b---(14)14b---(14)14b---(14)14b--(14)--------------|
D|-------------------------------------------14--14--14--|
A|*-----------------------------------------------------*|
E|-------------------------------------------------------|


e|-----------|
B|-----------|RUB(or slide) WITH PICK HAND  
G|-----------|AND USE TREMOLO BAR BENDING 
D|-----------|UP AND  DOWN. STOP HIGH AT 
A|-----------|THE NECK AND THEN BEND 
E|----RUB----|THAT NOTE.

e|-----------------------------12---15--|
B|--------------------12---15-----------|
G|-----------12---14--------------------|
D|--12---14-----------------------------|
A|--------------------------------------|
E|--------------------------------------|x3

e|-----------|
B|-----------|REPEAT SAME METHOD
G|-----------|AND TO GET ZING AT
D|-----------|THE END SLIDE A LIL FURTHER
A|-----------|UP THE NEXT AND BEND AGAIN.
E|----RUB----|

Outro
e|--------------------------------------------------|
B|--------------------------------------------------|
G|--------------9--9--9--9--9--9--9--9--9--9--9--9--|
D|--------9--9--9--9--9--9--9--9--9--9--9--9--9--9--|
A|--------7--7--7--7--7--7--7--7--7--7--7--7--7--7--|
E|--0--0--0--0--0--0--0--0--0--0--0--0--0--0--0--0--|
    .  .  .  .  .  .  .  .  .  .  .  .  .  .  .  .
                AND FIN UP WITH RANDOM SCRAP
                  (PICK SCRAPS AND STUFF)

FIGURE OUT THE STUCTURE ON YOUR OWN ITS NOT THAT HARD

| /  slide up
| \  slide down
| h  hammer-on
| p  pull-off
| ~  vibrato
| +  harmonic
| x  Mute note
| .  Palm Mute
======================================================================

Tap to rate this tab
 
# A B C D E F G H I J K L M N O P Q R S T U V W X Y Z