Song name
# A B C D E F G H I J K L M N O P Q R S T U V W X Y Z

Rage Against The Machine - Tire Me tab

Help us improve GuitareTab! Take a short survey!
<<< Tire me >>>

by 'Rage Against The Machine' from 'Evil Empire'

Tabbed by Liam Jemmeson [p.l.u.c.k.01@hotmail.com]

Symbols:
>  ~ = Let Ring
>  / = Slide Up
>  \ = Slide Down
>  x = Scratch Strings (Or pm, whatever sounds right) 
> pm = Palm Mute betweew lines (|--|) and where single lines are (|)
>  : = Mute note   
>  . = Where written under the tab pick where shown
>  h = Hammer-on
>  p = Pull off  
> b/ = Bend up
> r  = Release bend (to previous note)
>(#) = Bend [b(#)] or wammy [w(#)] to sound like bracketed note
> w/ = Whammy bar up
> w\ = Whammy bar down
> wr = Release Whammy bar (to normal postiton)

Tuning: Drop D [DADGBE)


Bass Intro 
E--x-x-x-x-x-x-x-x-x---|
B--x-x-x-x-x-x-x-x-x---|
G--x-x-x-x-x-x-x-x-x---|
D----------------------|
A----------------------|
D----------------------|

Verse - x8
E--------------------------------------------|
B----------5-5-5-5-5:--(6)r5-5:--(6)r5-5:----|
G--------------------------------------------|
D--------------------------------------------|
A--------------------------------------------|
D---0--0:------------------------------------|

Chorus - x4                                     |After 4th time
E-----------------------------------------------|--------|
B-----------------------------------------------|--------|
G-----------------------------------------------|--------|
D-----3--------3--------3--------3--------------|--------|
A--------5--------5--------5--------5------3~---|---0~---|
D--0--------0--------0--------0--------0---3~---|---0~---|

Verse - x8 
E--------------------------------------------|
B----------5-5-5-5-5:--(6)r5-5:--(6)r5-5:----|
G--------------------------------------------|
D--------------------------------------------|
A--------------------------------------------|
D---0--0:------------------------------------|
    ^ Only the first 4 times

Chorus - x4                                     
E-----------------------------------------------|
B-----------------------------------------------|
G-----------------------------------------------|
D-----3--------3--------3--------3--------------|
A--------5--------5--------5--------5------3~---|
D--0--------0--------0--------0--------0---3~---|

[No solo, sorry]

Verse - x4
E--------------------------------------------|
B----------5-5-5-5-5:--(6)r5-5:--(6)r5-5:----|
G--------------------------------------------|
D--------------------------------------------|
A--------------------------------------------|
D---0--0:------------------------------------|

Chorus - x11                                     
E-----------------------------------------------|
B-----------------------------------------------|
G-----------------------------------------------|
D-----3--------3--------3--------3--------------|
A--------5--------5--------5--------5------3~---|
D--0--------0--------0--------0--------0---3~---|

......................................................

Alternatively for the chorus you could play:
E-----------------------------------------------|
B-----------------------------------------------|
G-----------------------------------------------|
D-----3--0----3--0-----3--0-----3--0------------|
A------------------------------------------3~---|
D--0--------0--------0--------0--------0---3~---|
But that doesnt sound as good
......................................................

The End...Comments and ratings will be appreciated
Related for Tire Me tab