Song name
# A B C D E F G H I J K L M N O P Q R S T U V W X Y Z

Rage - Broken Musicbox tab

-----------------------------------------------------------------------------
			  Broken MusicBox - Band
-----------------------------------------------------------------------------
Tabbed by:DropC09
Email:Ojrazo@wmconnect.com

=| This is my first Tab but I will try to make some sense of how to play it. This is a
that I wrote for someone very close to me and the song is always complemented. I'm trying
get an adio version of it on YouTube, but no luck yet. (This is an ORIGINAL score and 
NOT have an adio version yet). Sorry for the issues, but play what's writen at Your
tempo and make up Your Own strum and pick styles. It's not very hard... just fun and has 
unique sweet yet sad melody. Have Fun! If there are any questions at all or comments or 
email me at "Ojrazo@wmconnect.com". Thank You!|=

Tuning: Drop D
Difficulty:Intermediate
Played Clean


(Hint:I usually finger pick the into., but it's possible to use a pick like with arpegios.)

 Into.                                                                     x4
e|---------0~-----------------0~-----------------0~-----------3~----------3~|
B|---0~----------0~-----3~----------3~-----0~----------0~-----------0~------|
G|-----2~----2~-----------0~----0~-----------2~----2~-----------0~----0~----|
D|-------2~----2~-----------2~----2~-----------2~----2~-----------2~----2~--|
A|-0~-----------------3~-----------------0~-----------------3~--------------|
D|--------------------------------------------------------------------------|

  Link(Once)         Riff A.                                          x2
e|---------------0~-|----------------------------------------------0~-|-----|
B|-------0~----1~---|-------1~-----------1~-----------1~--------------|-----|
G|-----0~----2~-----|---2~----2~-----2~----2~-----2~----2~-----2~-----|-----|
D|---2~----3~-------|-3~--3~-------2~--2~-------3~--3~-------2~--2~---|-----|
A|-3~---------------|-------------------------------------------------|-----|
D|------------------|-------------------------------------------------|-----|

  Riff B.                                                             x4
e|-----------------------------------------------------------------0~-|-----|
B|--------------------------------------------------------------------|-----|
G|-----5~------5~------5~------5~------5~------5~------5~------5~-----|-----|
D|---7~--7~--7~--7~--7~--7~--7~--7~--7~--7~--7~--7~--7~--7~--7~--7~---|-----|
A|-8~------8~------8~------8~------7~------7~------7~------7~---------|-----|
D|--------------------------------------------------------------------|-----|

  Chorus (Part A.)                                                         x2
e|------------------------------------------------------------------------0~|
B|------------------------------------------------------------------------0~|
G|-----------7~--7~--7~--7~---------------0~--0~--0~--0~--4~--4~--4~--4~--0~|
D|-2-2----------------------------------------------------------------------|
A|-2-2-2-3-5~--5~--5~--5~--5\3~-3h5p3-2-3~--3~--3~--3~--2~--2~--2~--2~--3~--|
D|-2-2----------------------------------------------------------------------|
   . .

  Chorus (Part B)                                                            e|--|
B|-------------------------------------------------------------------------------|
G|---4~--4~--4~---0~--0~--0~----4~--4~--4~----0~---7777~-777--4444~-444----------|
D|-------------------------------------------------xxxx~-xxx--xxxx~-xxx----------|
A|-2~--2~--2~--2/3~-3~--3~--3\2~--2~--2~--2/3~-----5555~-555--2222~-222----------|
D|-------------------------------------------------------------------------------|
                         Chorus (Part B.) Continued...        x2
  -----------------------------------------------------------|--------------|
  -----------------------------------------------------------|--------------|
  -7777~-777--4444~-444--0000~-000--4444~-444--0000~-000--4~-|--------------|
  -xxxx~-xxx--xxxx~-xxx--xxxx~-xxx--xxxx~-xxx--xxxx~-xxx--4~-|--------------|
  -5555~-555--2222~-222--3333~-333--2222~-222--3333~-333--2~-|--------------|
  -----------------------------------------------------------|--------------|
   (Now play Chorus Part A.)

  Solo...
e|--------------------------------------------------------------------------|
B|--------------------------------------------------------------------------|
G|-------------------0h9h10h12-9+-12-10-9-------------7+--9-10-12-10-9-10~--|
D|----------0h9h10h12---------------------10-9-7----------------------------|
A|-0h9h10h12-------------------------------------10-9-----------------------|
D|--------------------------------------------------------------------------|
  Second Half of Solo...            x4
e|--------------------------------------|-----------------------------------|
B|--------------------------------------|-----------------------------------|
G|-----9-10p9-9-12-10-9-10----------12~-|-----------------------------------|
D|---10--------------------10-12~-10----|-----------------------------------|
A|-12---------------------9------9------|-----------------------------------|
D|--------------------------------------|-----------------------------------|

 After Solo Play:
 Riff B.
 All Chorus
 Riff A.
 Riff B.(Again As Outro.)
______________________
| /  Slide up         |
| \  Slide down       |
| h  Hammer-on        |
| p  Pull-off         |
| b  Bend             |
| ~  Ring             |
| +  Vibrato          |
| () Natural Harmonic |
| *  Pinch Harmonic   |
| x  Mute Note        |
=============================================================================
Tap to rate this tab
# A B C D E F G H I J K L M N O P Q R S T U V W X Y Z