Rage - South Cross Union tab

I've tabbed this song by ear and this is how I play it. Solo is missing because I
learned the song by ear.
h/p=hammer on/pull off
*=stop ringing
/=slides
Standard Tuning

Intro Riff part 1
E|------------------------------------------------------|
B|------------------------------------------------------|
G|-7----5--------4h5-4h5--------7----5----1--*-4-*-4h5--|
D|-7----5--------4h5-4h5--------7----5----1--*-4-*-4h5--|
A|----0----0-0-0----------0-0-0----0----0---------------|
E|------------------------------------------------------|  3 times
Intro Riff part 2
E|----------------------------------------------|
B|----------------------------------------------|
G|-7----5--------4h5-4h5--------7----5----2-----|
D|-7----5--------4h5-4h5--------7----5----0-----|
A|----0----0-0-0----------0-0-0----0----0-0-----|
E|----------------------------------------------| 1 time

Verse Riff (All Palm Muted)
E|---------------------------------|
B|---------------------------------|
G|---------------------------------|
D|-8-8-8-5-5-5-7-7-3-3-3-0-0-0-5-7-|
A|---------------------------------|
E|---------------------------------| 3 times

E|-------------------|
B|-------------------|
G|-------------5-----|
D|-8-8-8-5-5-5-5-----|
A|-------------3-----|
E|-------------------|

Verse Riff Again

Intro Riff part 1 (1 time)
Intro Riff part 2

Verse Riff
Verse Riff again

Chorus Riff
E|---------------------------------------------------------------------------|
B|---------------------------------------------------------------------------|
G|-7--x-7--x-7---5--x-10--x-8----7--x-7--x-7---5--x-10--x-12-*-12-*-12/13\12-|
D|-7--x-7--x-7---5--x-10--x-8----7--x-7--x-7---5--x-10--x-12-*-12-*-12/13\12-|
A|-5--x-5--x-5---3--x-8---x-6----5--x-5--x-5---3--x-8---x-10-*-10-*-10/11\10-|
E|---------------------------------------------------------------------------|
2 times

Guitar 1=solo
Guitar 2= standby

when guitar 2 start, it plays:
E|-----------------------------------------------------------------|
B|-----------------------------------------------------------------|
G|--------------------------------------------------------8--x-----|
D|7-7-7-7-7-7-7-7-10-10-10-10-10-10-10-10-5-5-5-5-5-5-5-5-8--x-5---|
A|5-5-5-5-5-5-5-5-8--8--8--8--8--8--8--8--3-3-3-3-3-3-3-3-6--x-5---|
E|-------------------------------------------------------------3---|  4 times

Intro Riff part 1 (1 time)
Intro Riff part 3
E|-----------------------------------------------------5h6h8p6--|
B|-------------------------------------------------6h99---------|
G|-7----5--------4h5-4h5--------7----5----7-*---5h7-------------|
D|-7----5--------4h5-4h5--------7----5----7-*-------------------|
A|----0----0-0-0----------0-0-0----0----0-----------------------|
E|--------------------------------------------------------------| 1 time

Verse Riff
Verse Riff again

Chorus (2 times)

Final Riff

D|-7-7-7-7-7-7-7-7-7-7-7-7-7-7-7-7-9-9-9-9-9-9-9-9-9-9-9-9-9-9-9-9-|
A|-5-5-5-5-5-5-5-5-5-5-5-5-5-5-5-5-7-7-7-7-7-7-7-7-7-7-7-7-7-7-7-7-| 1 time

G|-9--11--12--11---7--12--10---9--11--12--11---7--12--14-|
D|-9--11--12--11---7--12--10---9--11--12--11---7--12--14-|
A|-7--9---10--9----5--10--8----7--9---10--9----5--10--12-|  2 times

G|-9--x-9--x-9----7--x-12--x-9-*
D|-9--x-9--x-9----7--x-12--x-9-*
A|-7--x-7--x-7----5--x-10--x-7-*
Tap to rate this tab
 
# A B C D E F G H I J K L M N O P Q R S T U V W X Y Z