Song name
# A B C D E F G H I J K L M N O P Q R S T U V W X Y Z

Rage - Introductiona Bit More Green tab

Band:  Rage
Album: Reflections of a Shadow
Song:  Introduction(a Bit More Of Green)

Copyright (c)  (Noise) (1990)
Version 1.0 - (16/05/06)

Transcribed By: Steve
Email:          stephen.elvidge1@ntlworld.com


.  - palm mute           /  - slide up to
\  - slide down to       ~  - vibrato
h  - hammer on           b  - Bend
p  - pull off            Suffixes for bend
t  - tap                 f  - full bend    h - half bend
ph - pinched harmonic    q  - quarter bend t - tap bend
                         p  - pre bend
*  - see comment         ^  - Hold bend    r release bend
x  - Stuccatto           ~  - vibrato bend
,  - slight palm mute    () - ghost note, sustained note
"  - tremolo note        <> - harmonic

Tuning E A D G B E

 Synth fade in key of E

 Acoustic guitar

|-----------------------------------------------------------|
|-----------------------------------------------------------|
|-----------------------------------------------------------|
|--2-------(2)----------------------------------------------|
|-2--------(2)---------2-1-2------(2)------1--(1)-----------|
|-0--------(0)-------------------------------------2--(2)---| Rpt

 Guitar 1
[-----------------------------------------------------------|
[-----------------------------------------------------------|
[-----------------------------------------------------------|
[--2-------(2)----------------------------------------------|
[-2--------(2)---------2-1-2------(2)------1--(1)-----------|
[-0--------(0)-------------------------------------2--(2)---|
[Guitar 2 Clean electric
[-0------------------------(0)------------------------------|
[-0------------------------(0)------------------------------|
[-1------------------------(1)------------------------------|
[-2------------------------(2)-------------2--(2)-----------|
[-2------------------------(2)---------------------1--(1)---|
[-----------------------------------------------------------| Rpt

 Guitar 1
[-----------------------------------------------------------|
[-----------------------------------------------------------|
[----------------------4-3-4------(4)------3--(3)-----------|
[--2-------(2)-------------------------------------4---5----|
[-2--------(2)----------------------------------------------|
[-0--------(0)----------------------------------------------|
[Guitar 2
[-----------------------------------------------------------|
[-0------------------------(0)------------------------------|
[-1------------------------(1)------------------------------|
[-2------------------------(2)------------------------------|
[-2------------------------(2)------------------------------|
[-----------------------------------------------------------|

 Guitar 1
[-----------------------------------------------------------|
[-----------------------------------------------------------|
[----------------------4-3-4------(4)------3--(3)-----------|
[--2-------(2)-------------------------------------4---5----|
[-2--------(2)----------------------------------------------|
[-0--------(0)----------------------------------------------|
[Guitar 2
[-----------------------------------------------------------|
[-0------------------------(0)-------------------------0----|
[-1------------------------(1)------------------------------|
[-2------------------------(2)------------------------------|
[-2------------------------(2)------------------------------|
[-----------------------------------------------------------|

 Guitar 1
[-----------------------------------------------------------|
[-----------------------------------------------------------|
[--2-------(2)----------------------------------------------|
[-2--------(2)---------2-1-2------(2)------3--(3)-----------|
[-0--------(0)-------------------------------------2--(2)---|
[-----------------------------------------------------------|
[Guitar 2
[-----------------------------------------------------------|
[-----------------------------------------------------------|
[-2--------------------------(2)----------------------------|
[-2--------------------------(2)----------------------------|
[-0--------------------------(0)----------------------------|
[-----------------------------------------------------------|

 Guitar 1
[-----------------------------------------------------------|
[-----------------------------------------------------------|
[--2-------(2)-----------------------------------------0----|
[-2--------(2)---------2-1-2-------------(2)----------------|
[-0--------(0)----------------------------------------------|
[-----------------------------------------------------------|
[Guitar 2
[-----------------------------------------------------------|
[-----------------------------------------------------------|
[-2--------------------------(2)----------------------------|
[-2--------------------------(2)----------------------------|
[-0--------------------------(0)----------------------------|
[-----------------------------------------------------------|

 Guitar 1
[-----------------------------------------------------------|
[-----------------------------------------------------------|
[-----------------------------------------------------------|
[--2-------(2)---------5-4-5------(5)------4--(4)-----------|
[-2--------(2)-------------------------------------5--(5)---|
[-0--------(0)----------------------------------------------|
[Guitar 2
[-----------------------------------------------------------|
[-0------------------------(0)------------------------------|
[-1------------------------(1)------------------------------|
[-2------------------------(2)------------------------------|
[-2------------------------(2)------------------------------|
[-----------------------------------------------------------|


 Guitar 1
[-----------------------------------------------------------|
[------------------------------------------------------0----|
[-----------------------------------------------------------|
[--2-------(2)---------5-4-5------(5)------4--(4)-----------|
[-2--------(2)-------------------------------------5--(5)---|
[-0--------(0)----------------------------------------------|
[Guitar 2
[-----------------------------------------------------------|
[-0------------------------(0)------------------------------|
[-1------------------------(1)------------------------------|
[-2------------------------(2)------------------------------|
[-2------------------------(2)------------------------------|
[-----------------------------------------------------------|



|---------0-------------0-------0---------0-------------0---------|
|-----------0-------------------------------0---------------------|
|-------4-------4-----4-------4-------4---------4-----4-------4---|
|-0---5-------5-----5-------5-------5---5-----5-----5-------5-----|
|---4-------------4-------4------\3---------------3-------3-----\-|
|-----------------------------------------------------------------|

|-------------------------------------|
|-----2----------(2)------------------|
|---0------------(0)------------------|
|-------------------------------------|
|-2--------------(2)------------------|
|-------------------------------------|



END

Tap to rate this tab
# A B C D E F G H I J K L M N O P Q R S T U V W X Y Z