Song name
# A B C D E F G H I J K L M N O P Q R S T U V W X Y Z

Raging Speedhorn - Madman tab

Raging Speedhorn - Madman.
Tabbed by Nick Fairchild  Nick_f@btinternet.com.
  
Artist: Raging Speedhorn
Song: Madman
Transcribed by: Nick Fairchild
E-mail: Nick_f@btinternet.com

E-mail any mistsakes! Enjoy..
Tuning: db  ab  db

Intro:

db----------------------   
ab----------------------  X2
db--00-0-000033-3/5-55-- 

Pre Verse:

db--00-0-000033-3/5-55----
ab--00-0-000033-3/5-55----  X4
db--00-0-000033-3/5-55---- 

Verse:
db--77-6-77-6--4/5-55-4/5-55---- 
ab--77-6-77-6--4/5-55-4/5-55---- X10
db--77-6-77-6--4/5-55-4/5-55---- 

Chorus:
db--0----33-3/5-55------ 
ab--0----33-3/5-55------ X2
db--0----33-3/5-55------

Verse X7
Chorus X10

Verse 2:
db-------------- 
ab-------------- X2  
db--7707007-10--

db--7707007-10-- 
ab--7707007-10-- X8 
db--7707007-10--

db--7707007-10-- 
ab-------------- X4
db-------------- 

Then repeat verse 2 without the first bit
End by sliding up.

 
:: Ultimate Guitar Archive :: 
http://www.ultimate-guitar.com 

Tap to rate this tab
# A B C D E F G H I J K L M N O P Q R S T U V W X Y Z