Song name
# A B C D E F G H I J K L M N O P Q R S T U V W X Y Z

Raging Speedhorn - Thumper tab

Raging Speedhorn - Thumper.
Tabbed by Nick Farichild  Nick_f@btinternet.com.
  
Artist: Raging Speedhorn
Song: Thumper
Transcribed by: Nick Fairchild
E-mail: Nick_f@btinternet.com

E-mail any mistsakes! Enjoy..
Tuning: db ab db
Lots of gain.

Intro:

db-----------------
ab----------------- X4
db--00--30--50--6-

Verse:

db--00--30--50--6--
ab--00--30--50--6-- X12
db--00--30--50--6-

Chorus:

db--10-10-9-10-10-9-10-10-9--4--
ab--10-10-9-10-10-9-10-10-9--4-- X4
db--10-10-9-10-10-9-10-10-9-4--

Verse
Chorus

Then there's a solo of some sort that I don't know if its bass or muted guitar.

Bridge:

db--00--44--33-0--22--
ab--00--44--33-0--22-- X8
db--00--44--33-0--22--

Chorus
Intro X2
Verse X8

Ends by sliding up the board.
 
:: Ultimate Guitar Archive :: 
http://www.ultimate-guitar.com 

Tap to rate this tab
 
# A B C D E F G H I J K L M N O P Q R S T U V W X Y Z