Guitaretab - guitar tabs
Song name
# A B C D E F G H I J K L M N O P Q R S T U V W X Y Z

Raging Speedhorn - Fuck The Voodoo Man tab

A Friendly song, fun to play acoustically round the campfire
ok so maybe not

awesome riffs, sounds mint and relatively easy - just gotta work those fingers


F*ck the voodoo man by Raging Speedhorn
from the album We will be dead tomorrow

tuning is drop db
(down a semitone all the way across and then drop d down a tone further)

Legend
\  = slide
*  = let ring
b  = bend
br = bend and release
h  = hammer on
p  = pull off
x  = heavily muted note
PM = Palm Mute


Opening riff + verse riff (x2 with guitar 1 then x? with guitar 1 and 2)

Eb----------------------------------------------------------|
Bb----------------------------------------------------------|
Gb----------------------------------------------------------|
Db----0-12-10--0-12-10--0-12-10--0-12-10--0-10-12-----------|
Ab----0-12-10--0-12-10--0-12-10--0-12-10--0-10-12-----------|
Db----0-12-10--0-12-10--0-12-10--0-12-10--0-10-12-----------|


Then before the vocals kick in "20 pints today" etc


Guitar 1

Eb------------------------------------------|
Bb------------------------------------------|
Gb------------------------------------------|
Db------10----10----10----10-12-------------|
Ab------10----10----10----10-12-------------|
Db----0-10--0-10--0-10--0-10-12-------------|


Guitar 2
[ Tab from: http://www.guitaretab.com/r/raging-speedhorn/33644.html ]
Eb------------------------------------------|
Bb------------------------------------------|
Gb------------------------------------------|
Db----12-10--12-10--12-10----10-12----------|
Ab----12-10--12-10--12-10----10-12----------|
Db----12-10--12-10--12-10--0-10-12----------|


Then both guitars play the opening riff

Chorus

Both guitars

Eb------------------------------------------|
Bb------------------------------------------|
Gb------------------------------------------|
Db----0-7-6-0--3-5-3-0--7-6-----------------|
Ab----0-7-6-0--3-5-3-0--7-6-----------------|
Db----0-7-6-0--3-5-3-0--7-6-----------------|


Fill

Both guitars

Eb-----------------------------------------|
Bb-----------------------------------------|
Gb-----------------------------------------|
Db----10--6--0--10--6----------------------|
Ab----10--6--0--10--6----------------------|
Db----10--6--0--10--6----------------------|

Towards the end guitar 2 plays

Eb--------------------------------------------------------|
Bb--------------------------------------------------------|
Gb--------------------------------------------------------|
Db----10-10-10-10-10-10-10-10-10-10-10-10-10--------------|
Ab----10-10-10-10-10-10-10-10-10-10-10-10-10--------------|
Db----10-10-10-10-10-10-10-10-10-10-10-10-10--------------|

and that's the lot

questions or abuse (both appreciated) then mail bikenutter@hotmail.com
Related for Fuck The Voodoo Man tab
Advertisement will be closed in 10 seconds