Song name
# A B C D E F G H I J K L M N O P Q R S T U V W X Y Z

Raging Speedhorn - Dungeon Whipped tab

Transcribed by: Nick Fairchild
E-mail: Nick_f@btinternet.com

E-mail any mistsakes! Enjoy..
Tuning: db ab gb
lots of gain.

Verse:

db--10--9--8--|-4/5-55-555-|--  The brackets are repeated 3 
ab--10--9--8--|-4/5-55-555-|--  times, the whole thing 7
db--10--9--8--|-4/5-55-555-|--  times.

Chorus:

db--10--9--8--
ab--10--9--8--
db--10-9--8--

db--------------------------
ab-------------------------- X3
db--10/12--12-12--12-12-12--      The chorus is played 2 times,           
                                  without the first bit.
db--------------------------       
ab-------------------------- X3
db-13/15--15-15--15-15-15-

Verse 2:

db--00-3-0-6-0-6/7-6--
ab--00-3-0-6-0-6/7-6-X16
db--00-3-0-6-0-6/7-6-

Verse
Chorus
Tap to rate this tab
# A B C D E F G H I J K L M N O P Q R S T U V W X Y Z