Song name
# A B C D E F G H I J K L M N O P Q R S T U V W X Y Z

Ragnarok - Theme Of Al De Baran tab

Ragnarok
Theme Of Aldebaran
Submitted by: paramore_fans@yahoo.com

Video Source: http://www.youtube.com/watch?v=AlUpZRu_LYI

this tab is incomplete yet, just wait for me to complete it

Tuning: Standard EADGBe

          C              Bb            Am            C#        G
e|-------------3---|---------1/3-|-------------|-----------|-----0-|
B|-------5-------1-|-----1-------|-----1-3---1-|-------2---|-1-3---|
G|-----5---5-------|---0---0-----|---2-----2---|-----1---1-|-------|
D|---5-------5-----|-------------|-------------|---3-------|-------|
A|-3---------------|-1-----------|-0-----------|-4---------|-------|
E|-----------------|-------------|-------------|-----------|-3-----|

         C              Bb                             F#
e|---------------|-------1-0-----|---3-----|---1-----|-2-|
B|-------6-5-3-1-|-----1-----3-1-|-3---3---|-1---1---|-2-|
G|-----5---------|---0-----------|-------3-|-------1-|-4-|
D|---5-----------|---------------|---------|---------|-3-|
A|-3-------------|-1-------------|---------|---------|---|
E|---------------|---------------|---------|---------|---|

         C              Bb             Am             C#        G
e|-------------3-|-------1---0-|-----------------|-----------|-----0-|
B|---------------|-----1---1---|-----1-3---1-----|-------2---|-1-3---|
G|-----5---------|---0---------|---2-----2-------|-----1---1-|-------|
D|---5---5---5---|-------------|-----------------|---3-------|-------|
A|-3-------3-----|-1-----------|-0-----------0-2-|-4---------|-------|
E|---------------|-------------|-----------------|-----------|-3-----|

         C              Bb                             F#
e|-------3-------|-------3-1-----|---3-----|---1-----|-2-|
B|---------6-3---|-----1-----3-1-|-3---3---|-1---1---|-2-|
G|-----5-------5-|---0-----------|-------3-|-------1-|-4-|
D|---5-----------|---------------|---------|---------|-3-|
A|-3-------------|-1-------------|---------|---------|---|
E|---------------|---------------|---------|---------|---|

            B                 E
e|---------2---------2-|---2-----2-------|
B|---------------------|-----0-----------|
G|---4---------4-------|-------1---3-4-1-|
D|-----4---------4-----|-2---------2-4---|
A|-2-----2---6-----2---|-----------------|
E|---------------------|-----------------|

            B                   E
e|---------2---------2-|---2-------------|
B|---------------------|-----0---2-----2-|
G|---4---------4-------|-------1-----3---|
D|-----4---------4-----|-2---------4-----|
A|-2-----2---6-----2---|-----------------|
E|---------------------|-----------------|

                 G
e|---------------------------------|
B|-----5-4-2-0---------5-4-2-0-2-4-|
G|---4---------3-1---4-------------|
D|---------------------------------|
A|---------------------------------|
E|-3---------------3---------------|

         complex fast part
Tap to rate this tab
# A B C D E F G H I J K L M N O P Q R S T U V W X Y Z