Song name
# A B C D E F G H I J K L M N O P Q R S T U V W X Y Z

Ragnarok - Into The Abyss tab

DISCLAIMER: Note that this is the Clown song named Into the Abyss, there is an OST 
called Into the Abyss as well!!

e|--------------------------------------------------------------------------|
B|--------------------------------------------------------------------------|
G|--------------------------------------------------------------------------|
D|--------------------------------------------------------------------------|
A|-------4---3---2---0--------------4---3---2~---------------4---3---2---0--|
E|---2------------------------2-2------------------------2------------------|

e|----------------------------||
B|----------------------------||
G|----------------------------|| (x2)
D|----------------------------||
A|----------------------------||
E|---2---2-2-2-2--2-2--5---2--||

e|-------------------||    |------|
B|-------------------||    |------|
G|---6---6-9----6----||(x6)|--11--|
D|-------------------||    |------|
A|-------------------||    |------|
E|-------------------||    |------|

e|-------------------||    |------|
B|-------------------||    |------|
G|---6---6-9----6----||(x4)|--11--|
D|-------------------||    |------|
A|-------------------||    |------|
E|-------------------||    |------|

Repeat forever.
Tap to rate this tab
# A B C D E F G H I J K L M N O P Q R S T U V W X Y Z