Song name
# A B C D E F G H I J K L M N O P Q R S T U V W X Y Z

Ragnarok - Assassin Cross Of Sunset tab

Assassin Cross of Sunset - Ragnarok Bard Song


|--------------------------------------------|
|--------------------------------------------|
|-----------4---4-----4--2----4h5----4---2---|
|-2-4--5-------------------------------------|
|--------------------------------------------|
|--------------------------------------------|


|------------------------------------------|
|------------------------------------------|
|---------------------2--4-----------------|
|-5-----------------5---------5-4-2---5----|
|------------------------------------------|
|------------------------------------------|


|-------------------------------------------------------|
|-------------------------------------------------------|
|-2-----------------------------------------------2-4-5-|
|--------------4-2---0----2-----------------2-4-5-------|
|-------------------------------------------------------|
|-------------------------------------------------------|


|----------------------------------------------|
|-3--------------------------------------------|
|-------------4---4---------------------5p4----|
|----------------------------------------------|
|----------------------------------------------|
|----------------------------------------------|


|----------------------------------|
|----------------------------------|
|-2--4-5--4--2-------------------2-|
|----------------5-----------4-5---|
|----------------------------------|
|----------------------------------|

                                   
|-----------------------------------|
|-----------------------------------|
|-4---------------------------------|
|--------5--2----5/7--7--4----------|
|---------------------------7--5--7-|
|-----------------------------------|
Tap to rate this tab
# A B C D E F G H I J K L M N O P Q R S T U V W X Y Z