Song name
# A B C D E F G H I J K L M N O P Q R S T U V W X Y Z

Rahatul Karim - Procrastination tab

-------------------------------------------------------------------------------
                Procrastination  -  Rahatul Karim
-------------------------------------------------------------------------------
Tabbed by:- Rooman Amin
Original Songwritter:- Rahatul Karim
Perfomed and Composed by:- Verdict
Tuning: Standard *EADGBe*

e|-----------------------------------------------------------------------------|
B|-----------------------------------------------------------------------------|
G|\9--9------------------------------7s9~--9-----------------------------------|
D|-------12--11--11--12--11--9-------------12~--11--12--11--9~-----------------|
A|-----------------------------------------------------------------------------|
E|-----------------------------------------------------------------------------|

e|-----------------------------------------------------------------------------|
B|-----------------------------------------------------------------------------|
G|8s9--11--12--11--9s6--6--6h7--7s9--9-----------------------------------------|
D|-----------------------------------------------------------------------------|
A|-----------------------------------------------------------------------------|
E|-----------------------------------------------------------------------------|

e|-----------------------------------------------------------------------------|
B|-----------------------------------------------------------------------------|
G|8s9--11--12--11--9s6--6--6h7--7s9--------------------------------------------|
D|------------------------------------------9s7--------------------------------|
A|-----------------------------------------------------------------------------|
E|-----------------------------------------------------------------------------|

e|-----------------------------------------------------------------------------|
B|17--17--15--14--14--14--15--14--12-------------------------------------------|
G|-----------------------------------------------------------------------------|
D|-----------------------------------------------------------------------------|
A|-----------------------------------------------------------------------------|
E|-----------------------------------------------------------------------------|

e|-----------------------------------------------------------------------------|
B|17--17--19--15--14--15--14--12-----------------------------------------------|
G|-----------------------------------------------------------------------------|
D|-----------------------------------------------------------------------------|
A|-----------------------------------------------------------------------------|
E|-----------------------------------------------------------------------------|

e|12--12--14--10--15--14--12--9--9--10--10s12--12------------------------------|
B|-----------------------------------------------------------------------------|
G|-----------------------------------------------------------------------------|
D|-----------------------------------------------------------------------------|
A|-----------------------------------------------------------------------------|
E|-----------------------------------------------------------------------------|

e|12--12--14--10--15--14--12--9--9--10--10s12----------------------------------|
B|------------------------------------------------------12--10-----------------|
G|-----------------------------------------------------------------------------|
D|-----------------------------------------------------------------------------|
A|-----------------------------------------------------------------------------|
E|-----------------------------------------------------------------------------|

************************************

| /   slide up
| \   slide down
| h   hammer-on
| p   pull-off
| ~   vibrato
| +   harmonic
| x   Mute note
| b   Bend
| pb  Pre-bend
| br  Bend release
| pbr Pre-bend release
| brb Bend release bend

************************************
I am sorry if there is a mistake,
Cheers.
Tap to rate this tab
# A B C D E F G H I J K L M N O P Q R S T U V W X Y Z