Song name
# A B C D E F G H I J K L M N O P Q R S T U V W X Y Z

Rainbow Butt Monkeys - Nibber tab

Rainbow Butt Monkeys: Nibber
Tabbed By: Jacob Belisario
Tuning: Standard
E-Mail: J_dawg2992@msn.com


This Intro Is Amazing
----------------------------------------------------------------------|
-4h-5-55---xx-xxx--------4h-5-55---xx-xxx-----------------------------|
-4h-5-55---xx-xxx--------4h-5-55---xx-xxx-----------------------------|
-4h-5-55---xx-xxx--66----4h-5-55---xx-xxx--666------------------------|
-------------------66----------------------xxx------------------------|
-------------------44----------------------444------------------------|


Main Riff

------------------------------------------------------------------|
------------------------------------------------------------------|
------------------------------------------------------------------|
-4/55555---4------------------------------------------------------|
-2/33333---2--5---------------------------------------------------|
--------------3---------------------------------------------------|


There is a quick switch from what you see above to what you below.


------------------------------------------------------------------|
------------------------------------------------------------------|
------------------------------------------------------------------|
4/55555-----------------------------------------------------------|
2/33333--6--5-----------------------------------------------------|
---------4--3-----------------------------------------------------|

Riff 2 (This Is All Palm Mutted)
------------------------------------------------------------------|
------------------------------------------------------------------|
------------------------------------------------------------------|
------------------------------------------------------------------|
---333333-2-----------333333-2------------------------------------|
------------44-----------------4-4-4------------------------------|

Chorus           Before Ending Add This To Chorus

-------------|-----------------------------------------------------|
-------------|-----------------------------------------------------|
-------------|---555555-5------------------------------------------|
-555555-5----|---555555-5-----555555-5-----------------------------|
-555555-5----|---333333-4-----555555-5-----------------------------|
-333333-4----|----------------333333-4-----------------------------|

   8X               4X           4X
Tap to rate this tab
# A B C D E F G H I J K L M N O P Q R S T U V W X Y Z