Song name
# A B C D E F G H I J K L M N O P Q R S T U V W X Y Z

Rainbow Butt Monkeys - Cake tab

Rainbow Butt Monkeys: Cake
Tabbed By: Jacob Belisario
Tuning: Standard
EMail: J_dawg2992@msn.com


Palm Muted


Main Riff:
------------------------------------------------------------------|
------------------------------------------------------------------|
---------------------------3--------------------------------------|
2222--2--22--3--22--5--22--3--------------------------------------|
2222--2--22--3--22--5--22--1--------------------------------------|
0000--0--00--1--00--3--00-----------------------------------------|
pppp     pp     pp     pp


Riff 2:
------------------------------------------------------------------|
------------------------------------------------------------------|
------------------------------------------------------------------|
2222--2--22--33---------------------------------------------------|
2222--2--22--33---------------------------------------------------|
0000--0--00--11---------------------------------------------------|
pppp     pp


Chorus:
------------------------------------------------------------------|
9999999--xx--7777-------------------------------------------------|
9999999--xx--7777-------------------------------------------------|
9999999--xx--7777---22--5--22--9999999--7777777-------------------|
7777777--xx--5555---22--5--22--7777777--5555555-------------------|
--------------------00--3--00-------------------------------------|
                    pp     pp


If You Liseten Carefully Here's Whats Played Under The Solo:


------------------------------------------------------------------|
------------------------------------------------------------------|
------------------------------------------------------------------|
22-5-2-5-2--------------------------------------------------------|
22-5-2-5-2--------------------------------------------------------|
00-3-0-3-0--------------------------------------------------------|
pp p p p p


Please rate. E-mail me with problems.
Tap to rate this tab
 
# A B C D E F G H I J K L M N O P Q R S T U V W X Y Z