Song name
# A B C D E F G H I J K L M N O P Q R S T U V W X Y Z

Rainbow Butt Monkeys - Spider Prints tab

Rainbow Butt Monkeys: Spiderprints
Tabbed By: Jacob Belisario
Tuning: Standard/Drop D
E-Mail: J_dawg2992@msn.com


Main Riff:
------------------------------------------------------------------|
------------------------------------------------------------------|
------------------------------------------------------------------|
------------------------------------------------------------------|
0--00-2/---0-22--x--2-/-6--------0--00-2/---0-22--x--2-/-8--------|
0--00-2/---0-22--x--2-/-6--------0--00-2/---0-22--x--2-/-8--------|

Chorus:
------------------------------------------------------------------|
------------------------------------------------------------------|
------------------------------------------------------------------|
------------------------------------------------------------------|
0---2------10--3-----------------------------------------0--------|
0---2------10--3------------------2222-----6666-5555-----0--------|

    8x

Its a pretty heavy song but its good. Finger Eleven was pretty good when they were 
butt monkeys. they still are though.
Tap to rate this tab
# A B C D E F G H I J K L M N O P Q R S T U V W X Y Z