Guitaretab - guitar tabs
Song name
# A B C D E F G H I J K L M N O P Q R S T U V W X Y Z

Rainbow - Lady Of The Lake tab

Lady of the lake by rainbow

|------------------------------------------------------|
|--------------------------------------------8/-3------|
|--------------------------------------------7/-2------|
|-------2--------5--------2----4-32-------------------|
|------------------------------2-1-0-------------------|
|-0-0-0----0-0-0----0-0-0------------------------------|

[ Tab from: http://www.guitaretab.com/r/rainbow/103201.html ]
|------------------------------------------------------|
|------------------------------------------------------|
|------------------------------------------------------|
|-------2--------5-------2-----------------------------|
|-----------------------------------2-3-5-3-2-0--------|
|-0-0-0----0-0-0----0-0-0------------------------------|

|------------------------------------------------------|
|------------3---------------------------3-------------|
|---0-----2--2------2------------0-----2-------0-------|
|---0-0----------2-------2----2---2-0-------0-------2-|
|---------------0-------2----3---------------------2---|
|-3-------------------0--------------------3-----0-----|


|-------------------------------------------------------|
|---------3---------------------------------------------|
|---0---2-------------2---------------------------------|
|-----0-------------2--------------------7--7--7--------|
|-3---------3-2-3-0-----3-2-3-2-3-2-3-5--5--5--5--------|
|-------------------------------------------------------|
Related for Lady Of The Lake tab