Song name
# A B C D E F G H I J K L M N O P Q R S T U V W X Y Z

Rainbow - Do You Close Your Eyes tab

     -RAINBOW-
DO YOU CLOSE YOUR EYES

----------------------------------------------------------------------------|
----------------------------------------------------------------------------|
--2---2---7-5-2---2---2---7-------------------------------------------------|
--2---2---7-5-2---2---2---7-------------------------------------------------|
--0---0---5-3-0---0---0---5-------------------------------------------------|
----3---------------3-------------------------------------------------------|
intro/verse:

----------------------------------------------------------------------------|
----------------------------------------------------------------------------|
-------------------------------5---------5----5----------------------5------|
----3---3---5---5----7---5---5---5-7--------------5----5----7---5---5--5-7--|
---------------------------7-----------3----3---------------------7---------|
--1----1---3--3----5---5------------------------3----3----5---5-------------|


----------------------------------------------------------------------------|
----------------------------------------------------------------------------|
----------------------------------------------------------------------------|
----------------------------------------------------------------------------|
----------------------------------------------------------------------------|
----------------------------------------------------------------------------|
Chorus: in D
Tap to rate this tab
# A B C D E F G H I J K L M N O P Q R S T U V W X Y Z