Song name
# A B C D E F G H I J K L M N O P Q R S T U V W X Y Z

Rainbow - Temple Of The King tab

I searched for this song but I didn't find its solo, so I tabbed it.It's a very nice 
and I'm sure there are no mistakes.

Tabbed by:Rawk Hawk

e|------------------------------------------------|
B(2:40)------------------------------------(2:50)-|
G|12----10-12-13--15--7--10----10-12-13--15--17---|
D|------------------------------------------------|
A|------------------------------------------------|
E|------------------------------------------------|

e|----------------------------------------------------------|
B|--------------------------(2:58)--------------------(3:05-|
G|17-15-15h16----15-17--------19--11----11--13----11-13-----|
D|---------------------17-------------------------------12--|
A|----------------------------------------------------------|
E|----------------------------------------------------------|

                                  (3:13)                             (3:22)
e|---------------------------------------------------------------------------|
B|-----11-13--17----15-17----11--13-------------------13-14-15-17---15/16\15-|
G|--12--------------------17---------13--11-12-13-15-------------------------|
D|---------------------------------------------------------------------------|
A|---------------------------------------------------------------------------|
E|---------------------------------------------------------------------------|
Tap to rate this tab
# A B C D E F G H I J K L M N O P Q R S T U V W X Y Z