Guitaretab - guitar tabs
Song name
# A B C D E F G H I J K L M N O P Q R S T U V W X Y Z

Rainbow - Man On The Silver Mountain tab

Man on the silver mountain by rainbow

Intro
E------------------------------------------------------------------|
B------------------------------------------------------------------|
G-------------3--------------------5---3---------------------------|
D-----5-3-5---3---3--5----5--3--5--5---3---------------------------|
A-----5-3-5-------3--5----5--3--5----------------------------------|
E--3---------------------------------------------------------------|

E-------------------------------------------------------------------|
B-------------------------------------------------------------------|
G-------------3-----------------------------------------------------|
D-----5-3-5---3---3--5----5-3-1-------------------------------------|
A-----5-3-5-------3--5----5-3-1-------------------------------------|
E--3----------------------------------------------------------------|

I'm a wheel, I'm a wheel...
E------------------------------------------------------------------|
B------------------------------------------------------------------|
G----------------5--------------------------0--4---------5---------|
D-------3-----------------5--------5-----2------------5------------|
A-----------3-3------------------------------------3---------------|
E--1-1---------------3-3------3-3----------------------------------|

E------------------------------------------------------------------------|
B---------------------------------------------------------------0-4------|
G--------------------------------------------5--------5-----2---------5--|
D------3--------3--------5--------1--------------------------------5-----|
A----------------------------------------3-3------3-3------------3-------|
E-1-1------1-1------3-3------1-1-----------------------------------------|
[ Tab from: http://www.guitaretab.com/r/rainbow/21592.html ]
     Tapping
E-------------------------------------------------------------------|
Bt10-p-6-p-3---t10-p-6--p-3---t10-p-6--p-3---t10-p-6--p-3----------|
G-------------------------------------------------------------------|
D-------------------------------------------------------------------|
A-------------------------------------------------------------------|
E-------------------------------------------------------------------|

E-------------------------------------------------------------------------|
B--t11-p-6-p-3---t11-p-6--p-3---t11-p-6--p-3---t11-p-6--p-3---------------|
G-------------------------------------------------------------------------|
D-------------------------------------------------------------------------|
A-------------------------------------------------------------------------|
E-------------------------------------------------------------------------|

E-------------------------------------------------------------------------|
Bt10-p-6-p-3---t10-p-6--p-3---t10-p-6--p-3---t10-p-6--p-3----------------|
G-------------------------------------------------------------------------|
D-------------------------------------------------------------------------|
A-------------------------------------------------------------------------|
E-------------------------------------------------------------------------|

E---------------------------------------------------------------------------|
B--t13-p-10-p-6---t13-p-10-p-6---t13-p-10-p-6---t13-p-10-p-6----------------|
G---------------------------------------------------------------------------|
D---------------------------------------------------------------------------|
A---------------------------------------------------------------------------|
E---------------------------------------------------------------------------|

Related for Man On The Silver Mountain tab