Guitaretab - guitar tabs
Song name
# A B C D E F G H I J K L M N O P Q R S T U V W X Y Z

Rainbow - The Temple Of The King tab

Song Name: The Temple Of The King
Band: Axel Rudi Pell
Album: The Ballads III

Tabbed by: Zaid Dabain

My first tabbed song... hope you'll like it!

Intro:
e|---------------------------------------------------------------------------|
B|-4---2-4-2---2---------2----2---------------4-----2-4-2---2---------2----2-|
G|-----------4---4-1--------4---4-3-4-3-1-----------------4---4-4------------|
D|---------------------------------------------------------------------------|
A|---------------------------------------------------------------------------|
E|---------------------------------------------------------------------------|

e|--------------|
B|4-2---2-------|
G|----4---3-1---|
D|--------------|
A|--------------|
E|--------------|

Fill:
e|------------------|
B|-------4-2--------|
G|-1-3-4-----3-4----|
D|------------------|
A|------------------|
E|------------------|

C		 G  
  One day in the year of the fox
	Dm		Am
Came a time remembered well
	 F
When the strong young man
	G
Of the rising sun heard the
Am
Tolling of the great black bell

(FILL)
C		 G
  One day in the year of the fox when the
F	      Am	
Bell began to ring, it meant the
F		      G	
Time had come for the one to go to the
Am
Temple of the King


Dm
There in the middle of the circle, he stands
Am
Searching, Seeking,
      G		
With just one touch of his trembling hand
     Am	
The answer will be found
Dm
Daylight waits for the oldman's scream
Am	
Heaven, help me,
G
Just like a rush of thousand wings 
    E
It shines upon the world
	F	G 	Am     
And the day has just begun

(Intro) 
(Fill)

Repeat 1st Verse & 2nd Verse Chords

(Intro)

[ Tab from: http://www.guitaretab.com/r/rainbow/21593.html ]
e|------------------------------------------------------11^-9----------------|
B|-----------2-4--5-4-2--------4-5-7--7-11-12-11-9--9-12-------12-9----9-12--|
G|--1-3-4--4-------------4p1-------------------------------------------------|
D|---------------------------------------------------------------------------|
A|---------------------------------------------------------------------------|
E|---------------------------------------------------------------------------|

e|---------------------16-14-14h16-14----------------------------------------|
B|-11-12-16-14-12p9--------------------16-17-16-14-12-11-9-------4^-2--------|
G|-----------------------------------------------------------1-4------4-1----|
D|---------------------------------------------------------------------------|
A|---------------------------------------------------------------------------|
E|---------------------------------------------------------------------------|

e|---------------------------------------------------------------------------|
B|---------------------------------------------------------------------------|
G|-8-13^-13-16-18-16-15--15-16-18-16-15--------------18-15-16-18-16-15-13----|
D|-------------------------------------18-16--16-----------------------------|
A|------------------------------------------18-------------------------------|
E|---------------------------------------------------------------------------|

e|--------------------------------|
B|--------------------------------|
G|----11-13-13^----16^-16^-16^-14-|
D|-13-----------------------------|
A|--------------------------------|
E|--------------------------------|

That's what I have for now... it will be updated later!
Related for The Temple Of The King tab
×
Best way to learn
"The Temple Of The King"