Song name
# A B C D E F G H I J K L M N O P Q R S T U V W X Y Z

Rainbow - Man On The Silver Mountain tab

Intro
E------------------------------------------------------------------|
B------------------------------------------------------------------|
G-------------3--------------------5---3---------------------------|
D-----5-3-5---3---3--5----5--3--5--5---3---------------------------|
A-----5-3-5-------3--5----5--3--5----------------------------------|
E--3---------------------------------------------------------------|

E-------------------------------------------------------------------|
B-------------------------------------------------------------------|
G-------------3-----------------------------------------------------|
D-----5-3-5---3---3--5----5-3-1-------------------------------------|
A-----5-3-5-------3--5----5-3-1-------------------------------------|
E--3----------------------------------------------------------------|

I'm a wheel, I'm a wheel...
E------------------------------------------------------------------|
B------------------------------------------------------------------|
G----------------5--------------------------0--4---------5---------|
D-------3-----------------5--------5-----2------------5------------|
A-----------3-3------------------------------------3---------------|
E--1-1---------------3-3------3-3----------------------------------|

E------------------------------------------------------------------------|
B---------------------------------------------------------------0-4------|
G--------------------------------------------5--------5-----2---------5--|
D------3--------3--------5--------1--------------------------------5-----|
A----------------------------------------3-3------3-3------------3-------|
E-1-1------1-1------3-3------1-1-----------------------------------------|

     Bridge 
E-5---5---5---5----6---6---6---6----8-----8-----8-----8--------|
B--6-6-6-6-6-6-6-6--6-6-6-6-6-6-6-6--10-10-10-10-10-10-10-10---|
G---7---7---7---7----7---7---7---7-----9-----9-----9-----9-----|
D--------------------------------------------------------------|
A--------------------------------------------------------------|
E--------------------------------------------------------------|

E-10------10-------12------12-------10------10-------6---6-------|
B---11--11--11--11---13--13--13--12---11--11--11--11--8-8-8-8----|
G-----10------10-------12------12-------10------10-----7---7-----|
D----------------------------------------------------------------|
A----------------------------------------------------------------|
E----------------------------------------------------------------|

E---------------------------|
B-8---8----10------10-------|
G--8-8-8-8---10--10--10--10-|
D---8---8------10------10---|
A---------------------------|
E---------------------------|

Tap to rate this tab
 
# A B C D E F G H I J K L M N O P Q R S T U V W X Y Z