Song name
# A B C D E F G H I J K L M N O P Q R S T U V W X Y Z

Rainbow - Anybody There tab

-----------------------------------------------------------------------------
                                          Artist - Rainbow
                                         ******************
                                        Song - Anybody There 
                                       **********************
                                     Album - Bent Out Of Shape 
                                    ***************************
                                        Tabbed By - Ayreon77
                                       **********************
-----------------------------------------------------------------------------
Tuning = Standard



This Is An Excellent Instrumental Solo By Richie Blackmore

                     (THE MASTER)
                      ----------

      This Is A Pretty Hard Song To Play. Good Luck


             PM                                                 Whammy
e|----------|-----------|-----------|-----------------|-------b-/\/\/\/\/\/\-|
B|--h-p-b---|---------b-|--h-p-h-p--|-----b-r---------|---3-5-5--------------|
G|-2-4-2----|-----2---2-|-1-2-1-2-1-|-2-4-4---2--p-h--|-2--------------------|
D|--------4-|-2-4---x---|-----------|-----------4-2-4-|----------------------|
A|----------|-----------|-----------|-----------------|----------------------|
E|----------|-----------|-----------|-----------------|----------------------|

           brbrb                                          p
e|---2-4-5-7---|-------------h--p--------|--b-9-10-9-12-10-9------h--p--------|
B|-2-----------|-------9-10-9-10-9--b--r-|-12----------------12-10-12-10--b-s-|
G|-------------|-----10------------11----|--------------------------------9-\-|
D|-------------|---11--------------------|------------------------------------|
A|-------------|-11----------------------|------------------------------------|
E|-------------|-------------------------|------------------------------------|

00:43 p                       TRILL..............
e|---9-7-----------|-----------h--p-h--p-h--p-h--p-----6-8-|
B|-X-----7----s----|-9-9-9-10-9-10-9-10-9-10-9-10-9--9-----|
G|---------7-6\7---|---------------------------------------|
D|---------------9-|---------------------------------------|
A|-----------------|---------------------------------------|
E|-----------------|---------------------------------------|

          h   h p p
e|-6-8-9-8-9-8-9-8-6--------------Whammy---|----------------|
B|-------------------9-7-9--------/\/\/\/\-|------5------p--|
G|-------------------------9-6---6---------|--6-7---7-6-7-6-|
D|-----------------------------9-----------|-x--------------|
A|-----------------------------------------|----------------|
E|-----------------------------------------|----------------|

   TRILL..............
e|--h--p-h--p-h--p-h------|--------s--------------|-----------s----|
B|-9-10-9-10-9-10-9-10----|-9-10-10\12------------|-------0--5\----|
G|---------------------11-|-----------------------|-1-----1--------|
D|------------------------|------------11-9-7-6---|-2--4-----------|
A|------------------------|---------------------9-|--------------0-|
E|------------------------|-----------------------|----------------|

                         dive
                          /\  /\/\/\
e|--------12-10-9--------9---------|----17--16-14------------------|
B|--10-10---------10---------------|---x----------14---s-----------|
G|-x-----------------9-6-----------|--x--------------14\13--/\/\/\-|
D|---------------------------------|-x---------------------16------|
A|---------------------------------|-------------------------------|
E|---------------------------------|-------------------------------|
        
                           hold
01:17                      bend
e|--h-----h--p-h--p----------|--|-----|------------------------------------|
B|-9-10--9-10-9-10-9------b--|--|--rb-|-----------------/\/\/\/\-----------|
G|-------------------11-9-9--9--9--9--|-6-brbrbr-rb--h-p------------s-h----|
D|------------------------------------|---9------9--7-6-7--------9-7\6-7---|
A|------------------------------------|----------------------------------9-|
E|------------------------------------|------------------------------------|


e|----------h--p-h--p-----------------------------------------|
B|--7-9-10-9-10-9-10-9--7-----7--------------7----------------|
G|-x-----------------------9-----7--9--7--9-----9--7--9--7--9-|
D|------------------------------------------------------------|
A|------------------------------------------------------------|
E|------------------------------------------------------------|

                                                        s
e|-----------dive---------------|------------h--p------7\9-|
B|--h-p-h-p-h-/\-/\-/\-/\-/\-/\-|---9--9-10-9-10-9--9------|
G|-7-9-7-9-7-9------------------|--9-----------------------|
D|------------------------------|-x------------------------|
A|------------------------------|--------------------------|
E|------------------------------|--------------------------|

              h  p                                    s                              
e|-9-10-9----9-10-9-----------h--p------h--h---9-10-12\14-|
B|--------12--------12-10----9-10-9----9-10-12------------|
G|------------------------11--------11--------------------|
D|--------------------------------------------------------|
A|--------------------------------------------------------|
E|--------------------------------------------------------|

     h  p            h  p         h  p         p         p         p                    
e|-12-14-12-----14-12-14-12--14-12-14-12-----14-12-----14-12-----14-12----|
B|----------15---------------------------15--------15--------15--------15-|
G|------------------------------------------------------------------------|
D|------------------------------------------------------------------------|
A|------------------------------------------------------------------------|
E|------------------------------------------------------------------------|

        h  p            h  p            h  p                                              
e|-14-12-14-12-----14-12-14-12-----14-12-14-12-------big----|
B|-------------15--------------15--------------15------bend-|
G|------------------------------------------------14--b-----|
D|---------------------------------------------------12-----|
A|----------------------------------------------------------|
E|----------------------------------------------------------|

01:52
e|----------h--p-h--p-h--p-h--p--------s-----b-|
B|---9-10--9-10-9-10-9-10-9-10-9--11-11\13--13-|
G|--9----------------------------9-------------|
D|-x----------------------------x--------------|
A|---------------------------------------------|
E|---------------------------------------------|

                                                            b   b  b  b  br
e|---------h--p----------b---b---b--b--br----|-------16-17-17--17-17-17-17-|
B|-14-15-14-15-14-------17--17--17-17-17-----|----14-----------------------|
G|----------------16-14-------------------14-|-14--------------------------|
D|-------------------------------------------|-----------------------------|
A|-------------------------------------------|-----------------------------|
E|-------------------------------------------|-----------------------------|
                                                            slow
                    b   b  b  br          b  br          b  br
e|----b-|-14-16-17-17--19-19-19----------19-19----------19-19-|-17-19-------|
B|-0-17-|-----------------------17-17-17-------17-17-17-------|-------17----|
G|------|-----------------------------------------------------|-------------|
D|------|-----------------------------------------------------|----------19-|
A|------|-----------------------------------------------------|-------------|
E|------|-----------------------------------------------------|-------------|


e|------------------|------------------|-------------------------|
B|--------------b-r-|---h--p-----------|-------------------------|
G|----16-18-19-19---|-18-19-18----s----|---p---------------------|
D|-19---------------|----------19-\-14-|-12-11-----s---------p---|
A|------------------|------------------|--------12-\-7-----5---4-|
E|------------------|------------------|-------------------------|



ENJOY..........
Tap to rate this tab
# A B C D E F G H I J K L M N O P Q R S T U V W X Y Z